Oops, an error
Loading. Please wait.
We have an official Feel Good Drag tab made by UG professional guitarists. Check out the tab »
×
26,509 views 6 this week
8 commentsread comments
1 2 3 4 5
x 13
add to favorites
×
Save as Personal and add changes to this tab that will be seen only by you. Learn more ›
×
You can save this tab as Personal to edit and correct it or add notes. All changes will be seen only by you. Learn more »
launch autoscroll
font size
0
reset
guitar tuner
edit
Autoscroll
slow
fast
+/-
esc
set tempo
stop
Song: The Feel Good Drag
Artist: Anberlin

Drop D Tuning

INTRO

G|-----------------------------------------------------------------------------|
D|-----------------------------------------------------------------------------|
A|-----------------------------------------------------------------------------|
D|-1--3-3---3-3-3-3-3-3-3-3-3-3-3-3-3-3-3-3-1-1-1-1-1-1-1-1-1-1-1-1-1-1-1-1----|

G|-----------------------------------------------------------------------------|
D|-----------------------------------------------------------------------------|
A|-3-4-4-4-4-4-4-4-4-4-4-4-4-4-4-4---------------------------------------------|
D|---------------------------------1-1-1-1-1-1-1-1-1-1-1-1-1-1-1-1--3--3--3--3-|

VERSE

G|-----------------------------------------------------------------------------|
D|--tacet----------------------------------------------------------------------|
A|-----------------------------------------------------------------------------|
D|-----------------------------------------------------------------------------|

G|-----------------------------------------------------------------------------|
D|-------3-3-3-----1-1-1-1---------------3-3-3-----1-1-1-1---------------------|
A|-------------3-3---------3-3-1-1-------------3-3---------1-1-3-3-------------|
D|-3-3-3---------------------------1-1-1---------------------------------------|

G|-----------------------------------------------------------------------------|
D|-------6-6-6-------6-6-6-----------------------------------------------------|
A|-4-4-4-------4-4-4-------4-4-5-5-------3-3-3-------3-3-3-----3-3-------------|
D|---------------------------------1-1-1-------1-1-1-------1-1-----------------|

PRE CHORUS

G|-----------------------------------------------------------------------------|
D|-----------------------------------------------------------------------------|
A|-----------------------------------------------------------------------------|
D|---3/6-6-/1--3~--------------------------------------------------------------|

CHORUS

G|-----------------------------------------------------------------------------|
D|-----------------------------------------------------------------------------|
A|-----------------------------------------------------------------------------|
D|-3-3-3-3-3-3-3-3-3-3-3-3-3-3-3-3-1-1-1-1-1-1-1-1-1-1-1-1-1-1-1-1-------------|

G|-----------------------------------------------------------------------------|
D|-----------------------------------------------------------------------------|
A|-3-4-4-4-4-4-4-4-4-4-4-4-4-4-4-4---------------------------------------------|
D|---------------------------------1-1-1-1-1-1-1-1-1-1-1-1--1--3-3-------------|

G|-----------------------------------------------------------------------------|
D|-----------------------------------------------------------------------------|
A|-----------------------------------------------------------------------------|
D|-3-3-3-3-3-3-3-3-3-3-3-3-3-3-3-3-1-1-1-1-1-1-1-1-1-1-1-1-1-1-1-1-------------|

G|-----------------------------------------------------------------------------|
D|-----------------------------------------------------------------------------|
A|-3-4-4-4-4-4-4-4-4-4-4-4-4-4-4-4---------------------------------------------|
D|---------------------------------1-1-1-1-1-1-1-1-1-1-1-1--1--3-3---3--3------|

VERSE

G|-----------------------------------------------------------------------------|
D|--tacet----------------------------------------------------------------------|
A|-----------------------------------------------------------------------------|
D|-----------------------------------------------------------------------------|

G|-----------------------------------------------------------------------------|
D|-------3-3-3-----1-1-1-1---------------3-3-3-----1-1-1-1---------------------|
A|-------------3-3---------3-3-1-1-------------3-3---------1-1-3-3-------------|
D|-3-3-3---------------------------1-1-1---------------------------------------|

G|-----------------------------------------------------------------------------|
D|-------6-6-6-------6-6-6-----------------------------------------------------|
A|-4-4-4-------4-4-4-------4-4-5-5-------3-3-3-------3-3-3-----3-3-------------|
D|---------------------------------1-1-1-------1-1-1-------1-1-----------------|

PRE CHORUS

G|-----------------------------------------------------------------------------|
D|-----------------------------------------------------------------------------|
A|-----------------------------------------------------------------------------|
D|--6-6--1--3~-----------------------------------------------------------------|

CHORUS

G|-----------------------------------------------------------------------------|
D|-----------------------------------------------------------------------------|
A|-----------------------------------------------------------------------------|
D|-3-3-3-3-3-3-3-3-3-3-3-3-3-3-3-3-1-1-1-1-1-1-1-1-1-1-1-1-1-1-1-1-------------|

G|-----------------------------------------------------------------------------|
D|-----------------------------------------------------------------------------|
A|-3-4-4-4-4-4-4-4-4-4-4-4-4-4-4-4---------------------------------------------|
D|---------------------------------1-1-1-1-1-1-1-1-1-1-1-1--1--3-3-------------|

G|-----------------------------------------------------------------------------|
D|-----------------------------------------------------------------------------|
A|-----------------------------------------------------------------------------|
D|-3-3-3-3-3-3-3-3-3-3-3-3-3-3-3-3-1-1-1-1-1-1-1-1-1-1-1-1-1-1-1-1-------------|

G|-----------------------------------------------------------------------------|
D|-----------------------------------------------------------------------------|
A|-3-4-4-4-4-4-4-4-4-4-4-4-4-4-4-4---------------------------------------------|
D|---------------------------------1-1-1-1-1-1-1-1-1-1-1-1--1--3-3-------------|

Bridge

G|-----------------------------------------------------------------------------|
D|-----------------------------------------------------------------------------|
A|-------------------------------------------4-4-4---4-4-4-4----6-6-6---6-6-6-6|
D|-1/6/3-3-3---3-3-3-3----1-1-1---1-1-1-1--------------------------------------|

G|-----------------------------------------------------------------------------|
D|-----------------------------------------------------------------------------|
A|-------4----------4---4-4-4-4-4-4-4-4-4-4-4-4-6-6-6-6-6-6-6-6-6-6-6-6-6-6-6-6|
D|-3-1-3---1--3-1-3---1--------------------------------------------------------|

G|-----------------------------------------------------------------------------|
D|----------------------------------------------8-----8-----8-----8-----8---8--|
A|-------4----------4---4-4-4-4-4-4-4-4-4-4-4-4---6-6---6-6---6-6---6-6---6---6|
D|-3-1-3---1--3-1-3---1--------------------------------------------------------|

CHORUS

G|-----------------------------------------------------------------------------|
D|-----------------------------------------------------------------------------|
A|-------------------4-4-4-4-4-4-4-4-4-4-4-4-4---------------------------------|
D|-3--3--3----3~--1~---------------------------1-1-1-1-1-1-1-1-1-1-1-1--1--3--3|

G|-----------------------------------------------------------------------------|
D|-----------------------------------------------------------------------------|
A|-----------------------------------------------------------------------------|
D|-3-3-3-3-3-3-3-3-3-3-3-3-3-3-3-3-1-1-1-1-1-1-1-1-1-1-1-1-1-1-1-1-------------|

G|-----------------------------------------------------------------------------|
D|-----------------------------------------------------------------------------|
A|-3-4-4-4-4-4-4-4-4-4-4-4-4-4-4-4---------------------------------------------|
D|---------------------------------1-1-1-1-1-1-1-1-1-1-1-1--1--3-3-------------|

G|-----------------------------------------------------------------------------|
D|-----------------------------------------------------------------------------|
A|-----------------------------------------------------------------------------|
D|-3-3-3-3-3-3-3-3-3-3-3-3-3-3-3-3-1-1-1-1-1-1-1-1-1-1-1-1-1-1-1-1-------------|

G|-----------------------------------------------------------------------------|
D|-----------------------------------------------------------------------------|
A|-3-4-4-4-4-4-4-4-4-4-4-4-4-4-4-4---------------------------------------------|
D|---------------------------------1-1-1-1-1-1-1-1-1-1-1-1--1--3-3-------------|

G|-----------------------------------------------------------------------------|
D|-----------------------------------------------------------------------------|
A|-----------------------------------------------------------------------------|
D|-3-3-3-3-3-3-3-3-3-3-3-3-3-3-3-3-1-1-1-1-1-1-1-1-1-1-1-1-1-1-1-1-------------|

G|-----------------------------------------------------------------------------|
D|-----------------------------------------------------------------------------|
A|-3-4-4-4-4-4-4-4-4-4-4-4-4-4-4-4---------------------------------------------|
D|---------------------------------1-1-1-1-1-1-1-1-1-1-1-1--1--3-3---3-3-3-3---|

OUTRO

G|-----------------------------------------------------------------------------|
D|-----------------------------------------------------------------------------|
A|-----------------------------------------------------------------------------|
D|-3/10/3-3-3-3-3-3-3-3-3-3-3-3-3-3-3-3-1-1-1-1-1-1-1-1-1-1-1-1-1-1-1-1--------|

G|-----------------------------------------------------------------------------|
D|-----------------------------------------------------------------------------|
A|-3-4-4-4-4-4-4-4-4-4-4-4-4-4-4-4---------------------------------------------|
D|---------------------------------1-1-1-1-1-1-1-1-1-1-1-1-1-1-1-1-1-1~--------|

Fin.

Please rate and comment... don't be too brutal. I'm sensitive.

            
            
Suggest correction
Creating personal tab
Creating personal tab
You can edit any tab online and save it as your Personal.

You can edit, replace or remove any tab part or add personal notes – all changes will be seen only by you.

Personal tabs can be accessed anytime from any device, even offline.
Learn more »
comments
print report bad tab
8 comments total. Showing first comments.
0 reply
manAVECbass 31 Nov 21, 2008 11:22 AM

this tab is very good thanks for posting :)

0 reply
jesuspunk777 145 Dec 05, 2008 10:35 AM

I like it man,sounds good.

0 reply
RussianRadio 10 Sep 19, 2009 02:25 PM

Bang on...sounds great! I tried it dropping down E 1/2 step and it sound a little better, IMO. Either way, thanks!

guest
You may want to rate the tab now too:
select rating
Wanna post a correction for this tab? Suggest correction