Oops, an error
Loading. Please wait.
We have an official Feel Good Drag tab made by UG professional guitarists. Check out the tab »
×
36,058 views 24 this week
9 commentsread comments
1 2 3 4 5
x 8
add to favorites
×
Save as Personal and add changes to this tab that will be seen only by you. Learn more ›
×
You can save this tab as Personal to edit and correct it or add notes. All changes will be seen only by you. Learn more »
launch autoscroll
font size
0
reset
how to read this tab
guitar tuner
edit
Autoscroll
slow
fast
+/-
esc
set tempo
stop
Anberlin
The Feel Good Drag
Never Take Friendship Personal~ (track 8)
Tooth and Nail records


hey everyone. since i had time and i was recieving some requests so i 
decided to put the whole song up. so here is the whole song including 
the solo tab that i posted up.

quarter note= 96ish
Drop D tuning (DADGBE)



b bend
h hammer-on
P pull-off
/ slide
~ vibrato
(#) artificial harmonic. (the artificial harmonics in this song are 
only slightly pinched with vibrato)
-----------------------------------------------------------------------------


INTRO:

Gtr 1: 16th notes fast
|------|---------------------------------8------------|   
|------|-----------9----------------------------------|
|------|-8h10-10-10-10-10-10--8h10-10-10--10-10-8-----| x4
|------|----------------------------------------------|
|------|----------------------------------------------|
|------|----------------------------------------------|

Gtr 2: quarter notes
|------|--------------|--------------|--------------|---------------|
|------|--------------|--------------|--------------|---------------| 
|------|--------------|--------------|--6--6--6--6--|---------------|
|-xx-x-|--3--3--3--3--|--1--1--1--1--|--6--6--6--6--|--1--1--1--1---|
|-xx-x-|--3--3--3--3--|--1--1--1--1--|--4--4--4--4--|--1--1--1--1---|
|-xx-x-|--3--3--3--3--|--1--1--1--1--|--------------|--1--1--1--1---|



Gtr 1
|------|-----------------|
|------|-----------------|
|------|-----------------|
|-xx-x-|--3--3--3--3-xx--|
|-xx-x-|--3--3--3--3-xx--|
|-xx-x-|--3--3--3--3-xx--|

Gtr 2
|------|-----------------|
|------|-----------------|
|------|-----------------|
|-xx-x-|--3--3--3--3-xx--|
|-xx-x-|--3--3--3--3-xx--|
|-xx-x-|--3--3--3--3-xx--|



VERSE 1

Gtr 1: (clean w/ slight delay)16th notes
|-----------------------------------|---------------------------------|
|-----------------------------------|---------------------------------|
|----10--10--10--10--10--10--10--10-|--10--10--10--10--10--10--10--10-|
|--10--10--10--10--10--10--10--10---|-8---8---8---8---8---8---8---8---|
|-----------------------------------|---------------------------------|
|-----------------------------------|---------------------------------|

|--------------------------------------------------|------------------------|
|--------------------------------------------------|------------------------|
|--------------------------------------------------|--8--8--8--8--8--8--8--8|
|--8-10-11-10--8-10-11-10--8-10-11-10--8-10-11-10--|-8--8--8--8--8--8--8--8-|
|--------------------------------------------------|------------------------|
|--------------------------------------------------|------------------------|

|----------------------------------|-------------------------|
|----------------------------------|-------------------------|
|---8---8---8---8---8---8---8---8--|--8--8--8--8--8--8--8--8-|
|-10--10--10--10--10--10--10--10---|-8--8--8--8--8--8--8--8--|
|----------------------------------|-------------------------|
|----------------------------------|-------------------------|
                           
|-------------------------|-------------------------|
|-------------------------|-------------------------|
|--5--5--5--5--5--5--5--5-|--8--8--8--8--8--8--8--8-|
|-6--6--6--6--6--6--6--6--|-8--8--8--8--8--8--8--8--|
|-------------------------|-------------------------|
|-------------------------|-------------------------|

Gtr 2: (comes in right before chorus)
|---------------|
|---------------|
|---------------|
|-6--6--/1-3--xx|
|-6--6--/1-3--xx|
|---------------|



CHORUS:

Gtr 1
|------------------|------------------|------------------|-----------------|
|------------------|------------------|------------------|-----------------|
|-10----10----10---|-12----12----12---|-13----13----13---|-15----15----15--|2x
|-----10----10--10-|-----13----13--13-|-----13----13--13-|-----13----13--13|
|------------------|------------------|------------------|-----------------|
|------------------|------------------|------------------|-----------------|

Gtr 2
|--------------|--------------|--------------|----------------|
|--------------|--------------|--------------|----------------| 
|--------------|--------------|--6--6--6--6--|----------------|
|--3--3--3--3--|--1--1--1--1--|--6--6--6--6--|--1--1--1--1-xx-| 2x
|--3--3--3--3--|--1--1--1--1--|--4--4--4--4--|--1--1--1--1-xx-|
|--3--3--3--3--|--1--1--1--1--|--------------|--1--1--1--1-xx-|

Gtr 1
|-----------------|
|-----------------|
|-----------------|
|--3--3-----------|
|--3--3-----------|
|--3--3-----------|

Gtr 2
|-----------------|
|-----------------|
|-----------------|
|--3--3--3--3-xx--|
|--3--3--3--3-xx--|
|--3--3--3--3-xx--|



VERSE 2:

Gtr 1: (clean w/ slight delay) 16th notes
||-----------------------------------|----------------------------------|
||-----------------------------------|----------------------------------|
||----10--10--10--10--10--10--10--10-|---12--12--12--12--12--12--12--12-|
||--10--10--10--10--10--10--10--10---|-10--10--10--10--10--10--10--10---|
||-----------------------------------|----------------------------------|
||-----------------------------------|----------------------------------|

|-----------------------------------|----------------------------------||
|-----------------------------------|----------------------------------||
|----13--13--13--13--13--13--13--13-|---13--13--13--13--13--13--13--13-|| 2x
|--10--10--10--10--10--10--10--10---|-13--13--13--13--13--13--13--13---||
|-----------------------------------|----------------------------------||
|-----------------------------------|----------------------------------||


Gtr 2: (right before CHorus)
|--------------------|
|--------------------|
|--------------------|
|--------------------|
|-6--6--/1-1-1--3----|
|-6--6--/1-1-1--3----|
           * *  *
           Palm mute



CHORUS



BRIDGE:

Gtr 1: (fade in)16th notes
|-----------------------------8-----------|
|-----------9--9--------------------------|
|-8h10-8h10--10-10--8h10-8h10--10-10-10---| 2x
|-----------------------------------------| 
|-----------------------------------------|
|-----------------------------------------|

Gtr 2
|-----------------------------------------|
|-----------------------------------------|
|-----------------------------------------| 2x
|-----------------------------------------|
|-----------------------------------------|
|-----------------------------------------|


Gtr 1: 16th notes
|-----------------------------8-----------|
|-----------9--9--------------------------|
|-8h10-8h10--10-10--8h10-8h10--10-10-10---| 4x
|-----------------------------------------| 
|-----------------------------------------|
|-----------------------------------------|

Gtr 2
|-----------------|---------------|----------------|-------------------|
|-----------------|---------------|----------------|-------------------|
|-----------------|---------------|---666--666-----|-------------------|
|----333--333-----|--111--111-----|---666--666-----|---111--111--xx-xx-|
|-10/333--333-----|--111--111-----|---444--444-----|---111--111--xx-xx-|
|-10/333--333-----|--111--111-----|----------------|---111--111--xx-xx-|




SOLO: Its hard to place measures in the solo tab, so just have the second
guitar play behind the solo. listen to the cd to figure when to play it

Gtr 1: 
||---------------------------------------------------------------------------|
||---------------------------------------------------------------------------|
||--10--8--6-5-6--5h6p5--5----------------------5--5-6-8--6h8p6-5------------|
||----------------------8-8-6----------5-6p5-6-8-8---------------8-6-8-(8)b--|
||---------------------------6-8--8p6-8--------------------------------------|
||---------------------------------------------------------------------------|


|-------------------------------------------|
|-------------------------------------------|
|------------------------------------6-8888-|
|-6h8p6---6h8p6--------6--6-8-10-8-10-------|
|------(8)~----(8)~-6h8-8-------------------|
|-------------------------------------------|


|-------8--------------------8------------8------------------------||
|-----------------9------9-------------9-------13-----13-----13----||
|--8/10--10-10-10--10-10--10--10-10-10--10-10--15b17--15b17--15b17-||
|------------------------------------------------------------------||
|------------------------------------------------------------------||
|------------------------------------------------------------------||


Gtr 2: plays behind solo
|-----------------|----------------|-------------|-------------|
|-----------------|----------------|-------------|-------------|
|-----------------|----------------|-6--6--6--6--|-8--8--8--8--| 2x
|-3--1---3-/10/1--|-3--1--3-/10/1--|-6--6--6--6--|-8--8--8--8--|
|-3--1---3-/10/1--|-3--1--3-/10/1--|-4--4--4--4--|-6--6--6--6--|
|-3--1---3-/10/1--|-3--1--3-/10/1--|-------------|-------------|



Gtr 1
|-----------------|
|-13--------------|
|-15b17-----------|
|-----------------|
|-----------------|
|-----------------|

Gtr 2
|----------------|
|----------------|
|----------------|
|--3--3--3--xxx--|
|--3--3--3--xxx--|
|--3--3--3--xxx--|



FINAL CHORUS:

Gtr 1
|------------------|------------------|------------------|------------------|
|------------------|------------------|------------------|------------------|
|-10----10----10---|-12----12----12---|-13----13----13---|-15----15----15---| 
|-----10----10--10-|-----13----13--13-|-----13----13--13-|-----13----13--13-|
|------------------|------------------|------------------|------------------|
|------------------|------------------|------------------|------------------|

Gtr 2
|------------------|------------------|--------------|----------------|
|------------------|------------------|--------------|----------------| 
|------------------|------------------|--6--6--6--6--|----------------|
|------------------|------------------|--6--6--6--6--|--1--1--1--1-xx-|
|------------------|------------------|--4--4--4--4--|--1--1--1--1-xx-|
|------------------|------------------|--------------|--1--1--1--1-xx-|


Gtr 1
|------------------|------------------|------------------|------------------|
|------------------|------------------|------------------|------------------|
|-10----10----10---|-12----12----12---|-13----13----13---|-15----15----15---| 
|-----10----10--10-|-----13----13--13-|-----13----13--13-|-----13----13--13-|
|------------------|------------------|------------------|------------------|
|------------------|------------------|------------------|------------------|

Gtr 2
|--------------|--------------|--------------|----------------|
|--------------|--------------|--------------|----------------| 
|--------------|--------------|--6--6--6--6--|----------------|
|--3--3--3--3--|--1--1--1--1--|--6--6--6--6--|--1--1--1--1-xx-|
|--3--3--3--3--|--1--1--1--1--|--4--4--4--4--|--1--1--1--1-xx-|
|--3--3--3--3--|--1--1--1--1--|--------------|--1--1--1--1-xx-|



Then Repeat the chorus it as if it were a normal chorus.


Gtr 1
|--------------|-----------------|
|--------------|-----------------|
|--------------|-----------------|
|--------------|-----------------|
|--------------|-----------------|
|--------------|-----------------|


Gtr 2
|--------------|-----------------|
|--------------|-----------------|
|--------------|-----------------|
|--3--3--3--3--|--3--3--3--3-xx--|
|--3--3--3--3--|--3--3--3--3-xx--|
|--3--3--3--3--|--3--3--3--3-xx--|


Play Intro once as an ending

            
            
Suggest correction
Creating personal tab
Creating personal tab
You can edit any tab online and save it as your Personal.

You can edit, replace or remove any tab part or add personal notes – all changes will be seen only by you.

Personal tabs can be accessed anytime from any device, even offline.
Learn more »
comments
print report bad tab
9 comments total. Showing first comments.
+1 reply
brandewyork 92 Jan 10, 2009 11:19 AM

For the rundown in the solo its:
e|------------------------------------
b|------------------------------------
g|-6h8p6-5h6p5-3h5p3-1h3p1-3~---------
d|------------------------------------
a|------------------------------------
E|------------------------------------

0 reply
brandewyork 92 Jan 10, 2009 11:21 AM

^ oh and I forgot to say, you did a good job with the tab.

0 reply
hate2love3434 10 Jan 13, 2009 12:01 PM

yeah, this is really good and better then any other good job in this

guest
You may want to rate the tab now too:
select rating
Wanna post a correction for this tab? Suggest correction