Oops, an error
Loading. Please wait.
We have an official Feel Good Drag tab made by UG professional guitarists. Check out the tab »
×
22,888 views 1 this week
3 commentsread comments
1 2 3 4 5
x 9
add to favorites
×
Save as Personal and add changes to this tab that will be seen only by you. Learn more ›
×
You can save this tab as Personal to edit and correct it or add notes. All changes will be seen only by you. Learn more »
launch autoscroll
font size
0
reset
how to read this tab
guitar tuner
edit
Autoscroll
slow
fast
+/-
esc
set tempo
stop
__________________________________________________________________________________

Feel Good Drag (acoustic studio version)- Anberlin
__________________________________________________________________________________

Everyone puts this song in drop D, for the acoustic. Personally, I think it sounds
better in standard or just a half step down, do whatever you want though.


(Intro)

Guitar #1

|--1----6----4----6--|
|--1----6----4----6--|
|--1----8----6----8--|
|--3----8----6----8--|
|--3----6----4----6--|
|--1----6----4----6--|

---------------------------------------------------------------------------------------


Guitar #2
|------4----------8--|
|--4h6---6----4h6—-4-|
|--------------------|    (2x)
|--------------------|
|--------------------|
|--------------------|


---------------------------------------------------------------------------------------


Verse #1)

|--1----6----4----6----1----6----4----6----1--------|
|--1----6----4----6----1----6----4----6----1--------|
|--1----8----6----8----1----8----6----    8----1----|    The strumming pattern isn’t hard,
|--3----8----6----8----3----8----6----    8----3----|    I’m sure you can figure it out.
|--3----6----4----6----3----6----4----6----3--------|
|--1----6----4----6----1----6----4----6----1--------|

---------------------------------------------------------------------------------------


(Chorus)


Guitar #1


Play the chords that are in the 1st verse.
---------------------------------------------------------------------------------------



Guitar #2

|----------------------------------------------------------|
|----------------------------------------------------------|
|--10---10--10---12---12—-12---13---13—-13---15---15—-15---|            (2x)
|----10---10--10---10---10---10—-13---13—--13---13—-13—-13-|
|----------------------------------------------------------|
|----------------------------------------------------------|


---------------------------------------------------------------------------------------


(Verse #2)

Same as the 1st verse, but he’s finger picking. You can figure probably figure out that one.
---------------------------------------------------------------------------------------

(Chorus)

---------------------------------------------------------------------------------------

Then they have a little pre-bridge thing.
Play that same set of chords.

---------------------------------------------------------------------------------------

Guitar #1

SOLO (lead)


|--------------------------------------------------------------------------------|
|--------------------------------------------------------------------------------|
|--10--8--6-5-6--5h6p5—3-5-3----------------------3-5-3-5-6/8--6h8p6-5h6p5-3h5p3-|
|----------------------------6------------5-6-5-6--------------------------------|
|------------------------------6/8—-8-6-8----------------------------------------|
|--------------------------------------------------------------------------------|

----------------------------------------------------|
----------------------------------------------------|
-1h3p1-5b-5/3—-1h3h1—-1h3h1------1---1h3-3h5-6-8888-|
--------------------3------3—1h3---3----------------|
----------------------------------------------------|
----------------------------------------------------|


-13----------------------13--------------------------------------------------------|
------------13-----------------------13-13-----------------------------------------|
---10-10-10----10-10-10-----10-10-10-------15/17-17-15h17-17-17--17-17-17-15-15-15-|
-----------------------------------------------------------------------------------|
-----------------------------------------------------------------------------------|
-----------------------------------------------------------------------------------|


--------------------------|
--------------------------|
-13-13-13-12-12--12/10-10-|
--------------------------|
--------------------------|
--------------------------|

---------------------------------------------------------------------------------------

(chorus again) 2x

---------------------------------------------------------------------------------------

Then to end it off I’m pretty sure he does the picking again.

--------------------------------------------------------------------------------------

(first tab by the way)


h = hammer

b = bend

/ = slide up

p = pull off

            
            
Suggest correction
Creating personal tab
Creating personal tab
You can edit any tab online and save it as your Personal.

You can edit, replace or remove any tab part or add personal notes – all changes will be seen only by you.

Personal tabs can be accessed anytime from any device, even offline.
Learn more »
comments
print report bad tab
3 comments total.
-1 reply
Dyrehart 10 Jul 20, 2011 06:29 AM

|------4----------8--|
|--4h6---6----4h6—-4-|
|--------------------| (2x)
|--------------------|
|--------------------|
|--------------------|

should be

|--------4---------------8-----|
|-4h6-6-6--6-6-6-4h6—6-6--6-6-6|
|------------------------------| (4x)
|------------------------------|
|------------------------------|
|------------------------------|

+1 reply
AbzKickAss 10 Aug 27, 2011 02:57 PM

i play it like this

|-----4------------8-----|
|-4h6--6-6-6---4h6—-6-6-8|
|------------------------| (4x)
|------------------------|
|------------------------|
|------------------------|

idk im not a tabber but this sounds better to me

0 reply
AbzKickAss 10 Aug 27, 2011 03:01 PM

but it sounds to me he plays it a bit different the second time so it almost like

E|-----4------------8-----|
B|-4h6--6-6-6---4h6—-6-6-8|

then

E|-----4-------------8----6--|
B|-4h6---6-6-6---4h6---6-6---|

guest
You may want to rate the tab now too:
select rating
Wanna post a correction for this tab? Suggest correction