Oops, an error
Loading. Please wait.

Haunting tab

version 3
version 3

Whole song

Interactive

12,608 views 1 this week
4 commentsread comments
1 2 3 4 5
x 8
add to favorites
×
Save as Personal and add changes to this tab that will be seen only by you. Learn more ›
×
You can save this tab as Personal to edit and correct it or add notes. All changes will be seen only by you. Learn more »
launch autoscroll
font size
0
reset
how to read this tab
guitar tuner
edit
Autoscroll
slow
fast
+/-
esc
set tempo
stop
-------------------------------------------------------------------------------
                             The Haunting - Anberlin
-------------------------------------------------------------------------------
Tabbed by: Luke
Email: I_am_Billiam@yahoo.com

Tuning:Drop D

I know these aren't the actual chord names, but the name 
I gave is just the dominant note, and if it's minor, I noted that.
If it says D2, it means the other chord in the song that has a "d" 
as the dominant note.Btw, this is my first tab, and kind of unorganized,
so if you have any questions just email me.

Chords in this song:
    D     Bm    D2    C     G      Em    D3   Bm2
e|--x--|--x--|--2--|--3--|--10--|--7--|--5--|--2--|
B|--x--|--x--|--3--|--3--|--10--|--7--|--5--|--3--|
G|--7--|--4--|--2--|--5--|--12--|--9--|--7--|--4--|
D|--7--|--4--|--0--|--5--|--12--|--9--|--7--|--5--|
A|--5--|--2--|--0--|--3--|--10--|--7--|--5--|--2--|
D|--5--|--2--|--x--|--3--|--10--|--7--|--5--|--2--|

Intro:Gtr 1:  D, Bm, D2, D, Bm, D2
      Gtr 2:  D, Bm, D2, G, Em, D

Verses: Gtr 1:D, Bm, D2, D, Bm, D2
        Gtr 2:G, Em, D,  G, Em, D

I marked where the Gtr 1 Chords change, and the Gtr. 2 Chords change 
in the same rhythm.

D
Up on this hill,
Bm               D2      
In this uncanny house.
D                     Bm
The wind makes this place creep,
               D2 
Lights they are flickering.
D                Bm  
The moon she is lurking,
                        D2                         
The clock it stopped working - at a quarter past three.
D                   Bm
There's something dancing,
               D2
Here in the shadows,
                    C  
And I wish it were us!
      D2        C   
You haunt me baby,
      D2               C  
You haunt me here tonight.
      D2        C 
You haunt me baby,
      D2               C  
You haunt me here tonight.
    Bm2
Tonight.

(Electric comes in with this on the end of the last "tonight":
e|-------------------|
B|-------------------|
G|-14--12--11--9--11-|
D|-14--12--11--9--11-|
A|-12--10--9---7--9--|
D|-------------------|  This is the order of the chords. Listen 
to the song for the strumming.

Then the little solo played at the same time is this.

e|---------------------------------------|
B|-10--10--10--10--10-10-10----10-10-10--|
G|---12--12--12--12---------12---------12|
D|---------------------------------------|
A|---------------------------------------|
D|---------------------------------------|

e|-----------------------------------------------------------------|
B|-10--10--10--10--10-10-10----10-10-10----------------------------|
G|---12--12--12--12---------12----------12--12--11-9--11-----------|
D|-----------------------------------------------------------------|
A|-----------------------------------------------------------------|
D|-----------------------------------------------------------------|

e|---------------------------------------|
B|-10--10--10--10--10-10-10----10-10-10--|
G|---12--12--12--12---------12---------12|
D|---------------------------------------|
A|---------------------------------------|
D|---------------------------------------|

e|-----------------------------------------------------------------|
B|-10--10--10--10--10-10-10----10-10-10----------------------------|
G|---12--12--12--12---------12----------12--12--11-9--7------------|
D|-----------------------------------------------------------------|
A|-----------------------------------------------------------------|
D|-----------------------------------------------------------------|
Tonight!
D              Bm
Can't get your memory,
           D2
Off of my mind - my mind.
D                Bm                  D2
Just want your heartbeat, on top of mine - of mine.

(There's palm muted chords on the same timing as the regular chords.
e|----------------|
B|----------------|
G|----------------|
D|--5---2---0---x-|
A|--5---2---0---x-|
D|--5---2---0---x-|
    D   Bm  D2  C

They're played with their marked chords.)


D                    Bm
There's something dancing,
               D2
Here in the shadows,
                   
And I wish it were us!

(This starts on "us" and the first two chords change back and 
forth in the same rhythm as the first chorus, and with Bm, keep 
playing the same two chords in the same pattern.
e|---------|
B|---------|
G|--12--7--|
D|--12--7--|
A|--10--5--|
D|---------|)

      D2        C
You haunt me baby,
      D2             C
You haunt me here tonight.
      D2        C
You haunt me baby,
       D2           Bm2
You haunt me here tonight.


(Towards the end of the chorus there's this little solo thing, 
and it goes back into the first solo for the interlude, 
which is also the same as the last one.

e|----15-14----15-14h15p14h15-|
B|--12------12----------------|
G|----------------------------|
D|----------------------------|
A|----------------------------|
D|----------------------------|Do this a few times. Listen to find 
out how many.

Move from your D powerchord into this:
e|-------------------|
B|-------------------|
G|-14--12--11--9--11-|
D|-14--12--11--9--11-|
A|-12--10--9---7--9--|
D|-------------------|  This is the order of the chords. Listen to 
the song for the strumming.)

Tonight!
D              Bm
Up on this hill,
           D2
In this uncanny house?
D             Bm
Your spirit I can't see,
               D2
But I still believe.

(Same as last chorus)

I can feel your breath on me!

You haunt me baby,

You haunt me here tonight.

You haunt me baby,

You haunt me here tonight.

Tonight!

D            Bm
Up on this hill,
          D2
In this uncanny house. 

            
            
Suggest correction
Creating personal tab
Creating personal tab
You can edit any tab online and save it as your Personal.

You can edit, replace or remove any tab part or add personal notes – all changes will be seen only by you.

Personal tabs can be accessed anytime from any device, even offline.
Learn more »
comments
print report bad tab
4 comments total. Showing first comments.
0 reply
jamuel24 260 Jan 13, 2010 08:55 AM

Great tab man! Love this song. What are the chords for the acoustic during the "Tonight!" part?

0 reply
ENtheWonderDog 42 Jan 25, 2010 05:23 PM

Yeah Great tab but again I think there's some more chords when he's saying "tonight" at the end of the chorus. Maybe more D2 and C?

Also I think it sounds good for the D2 chord if you go 000230 instead of X00232

0 reply
exselsi 33 Dec 06, 2012 09:14 AM

I think instead of a C in the chorus it should be Cadd9

guest
You may want to rate the tab now too:
select rating
Wanna post a correction for this tab? Suggest correction