Oops, an error
Loading. Please wait.

Miserabile Visu tab

version 1
version 1

Whole song

Interactive

3,405 views 1 this week
no commentswrite comment
1 2 3 4 5
x 6
add to favorites
×
Save as Personal and add changes to this tab that will be seen only by you. Learn more ›
×
You can save this tab as Personal to edit and correct it or add notes. All changes will be seen only by you. Learn more »
launch autoscroll
font size
0
reset
how to read this tab
guitar tuner
edit
Autoscroll
slow
fast
+/-
esc
set tempo
stop
This is my version I figured out by playing along with the album on my accoustic guitar. 
rate it and let me know what you think.

Intro/Verse:

--------------------------------------------|
--------------------------------------------|
-5----5----5----5------3----3----3----3-----|
-5----5----5----5------5----5----5----5-----|
---3-----3----3----3------------------------|
--------------------------5-----5----5----5-|

---------------------------------|
---------------------------------|
-1---1---1---1---3---3---3---3---|
-3---3---3---3---5---5---5---5---|
---------------------------------|
---3---3---3---3---5---5---5---5-|


Pre-Chorus:

PM
---------------------------------|
---------------------------------|
-5-5-5-5-5-5-5-5-7-7-7-7-7-7-7-7-|
-3-3-3-3-3-3-3-3-5-5-5-5-5-5-5-5-|
-3-3-3-3-3-3-3-3-5-5-5-5-5-5-5-5-|
-3-3-3-3-3-3-3-3-5-5-5-5-5-5-5-5-|
(ah, ah ah ah   ah   ah)

--------------------------------|
--------------------------------|
-5-5-5-5-5-5-5-5-5--------------|
-3-3-3-3-3-3-3-3-5--------------|
-3-3-3-3-3-3-3-3-3--------------|
-3-3-3-3-3-3-3-3----------------|
(ah, ah ah ah ah ah)

Chorus:

Guitar 1:

-------------------------------------------------|
-------------------------------------------------|
-5--5--5--5--7--7--7--7--5--5--5--5--5--5--5--5--|
-5--5--5--5--5--5--5--5--3--3--3--3--5--5--5--5--|
--3--3--3--3--------------------------3--3--3--3-|
--------------5--5--5--5--3--3--3--3-------------|

Guitar 2:

-------------6-5-6--------6-5-6-------6-5-------|
------------------------------------------8-----|
------------------------------------------------|
------------------------------------------------|
------------------------------------------------|
------------------------------------------------|

-8-----------6-5-6--------6-5-6-------6---------|
------------------------------------------8-----|
------------------------------------------------|
------------------------------------------------|
------------------------------------------------|
------------------------------------------------|

Now play this before going back to the verse riff

--------------------------------------------------|
--------------------------------------------------|
-1--1--1--1--3--3--3--3--5--5--5--5--3--3--3--3---|
-3--3--3--3--5--5--5--5--5--5--5--5--5--5--5--5---|
---------------------------3--3--3--3-------------|
---3--3--3--3--5--5--5--5--------------5--5--5--5-|

Verse 2
Pre-Chorus

Chorus 2:

Guitar 1

------------------------------------------------|
------------------------------------------------|
-5--5--5--5--7--7--7--7--5--5--5--5--5--5--5--5-|
-5--5--5--5--5--5--5--5--3--3--3--3--5--5--5--5-|
-3--3--3--3--5--5--5--5--3--3--3--3--3--3--3--3-|
-------------5--5--5--5--3--3--3--3-------------|

Guitar 2

-------------------------------------------------|
-13-13-13-13-13-13-13-13-13-13-13-13-13-13-11-10-|
-------------------------------------------------|
-10-10-10-10-10-10-10-10-10-10-10-10-10-10-8--7--|
-------------------------------------------------|
-------------------------------------------------|

-------------------------------------------------|
-11-11-11-11-11-11-11-11-11-11-11-11-11-11-11-10-|
-------------------------------------------------|
-8--8--8--8--8--8--8--8--8--8--8--8--8--8--8--7--|
-------------------------------------------------|
-------------------------------------------------|

-------------------------------------------------|
-11-11-11-11-11-11-11-11-11-11-11-11-11-11-11-10-|
-------------------------------------------------|
-8--8--8--8--8--8--8--8--8--8--8--8--8--8--8--7--|
-------------------------------------------------|
-------------------------------------------------|

-------------------------------------------------|
-8-8-8-8-8-8-8-8-8-8-8-8-8-8-8-8-----------------|
-------------------------------------------------|
-5-5-5-5-5-5-5-5-5-5-5-5-5-5-5-5-----------------|
-------------------------------------------------|
-------------------------------------------------|

Bridge:

Guitar 1:

-------------------------------------------------|
-------------------------------------------------|
-8--8--8--8--8--8--8--8--3--3--3--3--3--3--3--3--|
-6--6--6--6--6--6--6--6--3--3--3--3--3--3--3--3--|
-6--6--6--6--6--6--6--6--1--1--1--1--1--1--1--1--|
-6--6--6--6--6--6--6--6--------------------------|

-------------------------------------------------|
-------------------------------------------------|
-5--5--5--5--5--5--5--5--5--5--5--5--5--5--5--5--|
-5--5--5--5--5--5--5--5--5--5--5--5--5--5--5--5--|
-3--3--3--3--3--3--3--3--3--3--3--3--3--3--3--3--|
-------------------------------------------------|

Guitar 2:

-----------------|
-4-3-----------3-|
-----5-3---3-5---|
---------5-------|
-----------------|
-----------------|

Solo:

(This is played over the Bridge riff)

------------------------------------------|
-11h13p11--11h13p11--11h13p11--11h13p11---|
---------11--------11--------11--------11-|
------------------------------------------|
------------------------------------------|
------------------------------------------|

------------------------------------------|
-11h13p11--11h13p11--11h13p11--11h13p11---|
---------11--------11--------11--------11-|
------------------------------------------|
------------------------------------------|
------------------------------------------|

(note: my accoustic only has 20 frets, so i'm kinda guessing here...)
v-Tremolo picking-v
---------22---23----20--------18----16-----15--16--15---|
-20-----------------------------------------------------|
--------------------------------------------------------|
--------------------------------------------------------|
--------------------------------------------------------|
--------------------------------------------------------|

----------------------------10b^----12b^----------------|
-----3b^--5b^-----------------------------13b^----13-13-|
-5b^-----------6b^----5b^-------------------------------|
--------------------------------------------------------|
--------------------------------------------------------|
--------------------------------------------------------|

Outro:

--------------------------------------------|
--------------------------------------------|
-5----5----5----5------3----3----3----3-----|
-5----5----5----5------5----5----5----5-----|
---3-----3----3----3------------------------|
--------------------------5-----5----5----5-|

--------------------------------------------|
--------------------------------------------|
-3----3----3----3----5----5----5----5-------|
-3----3----3----3----5----5----5----5-------|
---1----1----1----1----3-----3----3----3----|
--------------------------------------------|

Lyrics:

Verse 1:
A red priest broke into our classroom
Caught us children by attention

"Listen closely to the words I speak
Lord knows if we'll ever, ever again meet"

A man is coming in thirteen-one
To charm the daughters and the sons
Miracles like you never seen
From a man who was raised up in the sea

Spoke such words never spoken before
On the way he declared the war

Scared for our lives, I turned to your hand
Hold this tight while we run, if we still can

Chorus 1:
What disasters may come, whatever it may be
At the end of the age, it will land you an dme
What tragedy may bring, what ever may fall
At the end of the world, you still belong

Verse 2:
Before the red pries took his last breath
He told me child now don't forget
The sun will turn dark very soon
Your days are numbered when there is blood on the moon

The earth will shake and the sky will fall
The eyes will open of those enthralled
But by then it will be to late
One third the water you'll find sedate
Don't take the sign, but you'll be killed
By the man from seven hills

Scared for our lives, I turned to your hand
Hold this tight while we run, if we still can

Chorus 2:
What disasters may come, whatever it may be
At the end of the age, it will land you and me
What tragedy may bring, what ever may fall
At the end of the world, you still belong

Bridge:
Look childen to the eastern sky
When you hear the voice say your last goodbye
Look there to the eastern skies
When the ghosts take hold of the men who've died
Look children to the eastern sky
When your fathers weep and your mothers cry
Look children to the eastern sky

            
            
Suggest correction
Creating personal tab
Creating personal tab
You can edit any tab online and save it as your Personal.

You can edit, replace or remove any tab part or add personal notes – all changes will be seen only by you.

Personal tabs can be accessed anytime from any device, even offline.
Learn more »
comments
print report bad tab
guest
You may want to rate the tab now too:
select rating
Wanna post a correction for this tab? Suggest correction