Oops, an error
Loading. Please wait.

Uncanny tab

version 1
version 1

Whole song

Interactive

8,092 views 1 this week
5 commentsread comments
1 2 3 4 5
x 3
add to favorites
×
Save as Personal and add changes to this tab that will be seen only by you. Learn more ›
×
You can save this tab as Personal to edit and correct it or add notes. All changes will be seen only by you. Learn more »
launch autoscroll
font size
0
reset
how to read this tab
guitar tuner
edit
Autoscroll
slow
fast
+/-
esc
set tempo
stop
Song: Uncanny
Artist: Anberlin
Album: Cities
Release: 2007

Tabbed by: alman84

INTRO:

Gtr 1 [lightly distorted]: (x4)
e--------------------------------------------|
B--------------------------------------------|
G--4h6p4-2--2--2--1h2--2--2--1-1h2--2--2-4-4-|
D--------------------------------------------|
A--------------------------------------------|
D--------------------------------------------|

Gtr2 [distorted]:
e------------------------------------|
B------------------------------------|
G------------------------------------|
D-0-0-0-0--2-2-2-2--4-4-4-4--2-2-2-2-|
A-0-0-0-0--2-2-2-2--4-4-4-4--2-2-2-2-|
D-0-0-0-0--2-2-2-2--4-4-4-4--2-2-2-2-|

e------------------------------------|
B------------------------------------|
G------------------------------------|
D-0-0-0-0--2-2-2-2--4-4-4-4--6-6-6-6-|
A-0-0-0-0--2-2-2-2--4-4-4-4--6-6-6-6-|
D-0-0-0-0--2-2-2-2--4-4-4-4--6-6-6-6-|

e------------------------------------|
B------------------------------------|
G------------------------------------|
D-0-0-0-0--2-2-2-2--4-4-4-4--2-2-2-2-|
A-0-0-0-0--2-2-2-2--4-4-4-4--2-2-2-2-|
D-0-0-0-0--2-2-2-2--4-4-4-4--2-2-2-2-|

e------------------------------------|
B------------------------------------|
G------------------------------------|
D-0-0-0-0--2-2-2-2--0-0-0-0--2-2-2-2-|
A-0-0-0-0--2-2-2-2--0-0-0-0--2-2-2-2-|
D-0-0-0-0--2-2-2-2--0-0-0-0--2-2-2-2-|


VERSE:

An acoustic guitar strums this chord (Esus) for the entire verse:
e--0--
B--0--
G--2--
D--2--
A--2--
D--x--

Halfway into the verse (32 counts), a very lightly distorted electric guitar comes in:
e--0-0-0-0-0-0-0-0-0-0-0-0-0-0-0-0-0-0-0-0-0-0-0-0-0-0-0-0-0-0-0-0--|
B--0-0-0-0-0-0-0-0-0-0-0-0-0-0-0-0-0-0-0-0-0-0-0-0-0-0-0-0-0-0-0-0--|
G--2-2-2-2-2-2-2-2-2-2-2-2-2-2-2-2-2-2-2-2-2-2-2-2-2-2-2-2-2-2-2-2--|(x2)
D--0-0-0-0-0-0-0-0-2-2-2-2-2-2-2-2-4-4-4-4-4-4-4-4-2-2-2-2-2-2-2-2--|
A--0-0-0-0-0-0-0-0-0-0-0-0-0-0-0-0-0-0-0-0-0-0-0-0-0-0-0-0-0-0-0-0--|
D--x-x-x-x-x-x-x-x-x-x-x-x-x-x-x-x-x-x-x-x-x-x-x-x-x-x-x-x-x-x-x-x--|


CHORUS:

Gtr 1 [light distortion]: (x4)
e--------------------------------------------|
B--------------------------------------------|
G--4h6p4-2--2--2--1h2--2--2--1-1h2--2--2-4-4-|
D--------------------------------------------|
A--------------------------------------------|
D--------------------------------------------|

Gtr2 [distortion]:
e------------------------------------|
B------------------------------------|
G------------------------------------|
D-0-0-0-0--2-2-2-2--4-4-4-4--2-2-2-2-|
A-0-0-0-0--2-2-2-2--4-4-4-4--2-2-2-2-|
D-0-0-0-0--2-2-2-2--4-4-4-4--2-2-2-2-|

e------------------------------------|
B------------------------------------|
G------------------------------------|
D-0-0-0-0--2-2-2-2--4-4-4-4--6-6-6-6-|
A-0-0-0-0--2-2-2-2--4-4-4-4--6-6-6-6-|
D-0-0-0-0--2-2-2-2--4-4-4-4--6-6-6-6-|

e------------------------------------|
B------------------------------------|
G------------------------------------|
D-0-0-0-0--2-2-2-2--4-4-4-4--2-2-2-2-|
A-0-0-0-0--2-2-2-2--4-4-4-4--2-2-2-2-|
D-0-0-0-0--2-2-2-2--4-4-4-4--2-2-2-2-|

e------------------------------------|
B------------------------------------|
G------------------------------------|
D-0-0-0-0--2-2-2-2--0-0-0-0--2-2-2-2-|
A-0-0-0-0--2-2-2-2--0-0-0-0--2-2-2-2-|
D-0-0-0-0--2-2-2-2--0-0-0-0--2-2-2-2-|

BRIDGE:

At the beginning of the bridge, there is a section with 16 beats that is just a lightly
acoustic guitar and an effected electric guitar.

Acoustic:
e--0--
B--0--
G--2--
D--2--
A--2--
D--x--


EGtr1: (x1)
e--12----------12-----|
B------14--12------10-|
G---------------------|
D---------------------|
A---------------------|
D---------------------|

EGtr2: (x1)
e-------------|
B-------------|
G-------------|
D--0--2--4--7-|
A--0--2--4--7-|
D--0--2--4--7-|

After that 16 beat section, there's a section where the acoustic cuts out and a lightly
electric guitar comes in. With the kind of distortion, it's kind of hard to pick out
what is being played. I think it's very similar to the second half of the verse with a 
of difference, but I'm not for sure. If anyone can figure this out, please let me know and
edit and give credit where credit is due. In the meantime, here's my guess:

Gtr 1 [light distortion]: (x2) (you actually strum each chord 16 times, but whatever)
e--0-0-0-0-0-0-0-0-0-0-0-0-0-0-0-0-0-0-0-0-0-0-0-0-0-0-0-0-0-0-0-0--|
B--0-0-0-0-0-0-0-0-0-0-0-0-0-0-0-0-0-0-0-0-0-0-0-0-0-0-0-0-0-0-0-0--|
G--2-2-2-2-2-2-2-2-2-2-2-2-2-2-2-2-2-2-2-2-2-2-2-2-2-2-2-2-2-2-2-2--|
D--0-0-0-0-0-0-0-0-2-2-2-2-2-2-2-2-4-4-4-4-4-4-4-4-2-2-2-2-2-2-2-2--|
A--0-0-0-0-0-0-0-0-0-0-0-0-0-0-0-0-0-0-0-0-0-0-0-0-0-0-0-0-0-0-0-0--|
D--x-x-x-x-x-x-x-x-x-x-x-x-x-x-x-x-x-x-x-x-x-x-x-x-x-x-x-x-x-x-x-x--|

Gtr2 [distorted]: (x2) (same here)
e------------------------------------------------------------------|
B------------------------------------------------------------------|
G------------------------------------------------------------------|
D--0-0-0-0-0-0-0-0-2-2-2-2-2-2-2-2-4-4-4-4-4-4-4-4-7-7-7-7-7-7-7-7-|
A--0-0-0-0-0-0-0-0-2-2-2-2-2-2-2-2-4-4-4-4-4-4-4-4-7-7-7-7-7-7-7-7-|
D--0-0-0-0-0-0-0-0-2-2-2-2-2-2-2-2-4-4-4-4-4-4-4-4-7-7-7-7-7-7-7-7-|

On the second time through this part, the electric solo-ey thing comes back in, so it's
only once through:

e--12----------12-----|
B------14--12------10-|
G---------------------|
D---------------------|
A---------------------|
D---------------------|

At the very end of the bridge, strum and hold a straight-up D power chord on Gtr2:
e----
B----
G----
D--0-
A--0-
D--0-

And then you go back into the chorus:

CHORUS: (x2)

Gtr 1 [light distortion]: (x4)
e--------------------------------------------|
B--------------------------------------------|
G--4h6p4-2--2--2--1h2--2--2--1-1h2--2--2-4-4-|
D--------------------------------------------|
A--------------------------------------------|
D--------------------------------------------|

Gtr2 [distortion]:
e------------------------------------|
B------------------------------------|
G------------------------------------|
D-0-0-0-0--2-2-2-2--4-4-4-4--2-2-2-2-|
A-0-0-0-0--2-2-2-2--4-4-4-4--2-2-2-2-|
D-0-0-0-0--2-2-2-2--4-4-4-4--2-2-2-2-|

e------------------------------------|
B------------------------------------|
G------------------------------------|
D-0-0-0-0--2-2-2-2--4-4-4-4--6-6-6-6-|
A-0-0-0-0--2-2-2-2--4-4-4-4--6-6-6-6-|
D-0-0-0-0--2-2-2-2--4-4-4-4--6-6-6-6-|

e------------------------------------|
B------------------------------------|
G------------------------------------|
D-0-0-0-0--2-2-2-2--4-4-4-4--2-2-2-2-|
A-0-0-0-0--2-2-2-2--4-4-4-4--2-2-2-2-|
D-0-0-0-0--2-2-2-2--4-4-4-4--2-2-2-2-|

e------------------------------------|
B------------------------------------|
G------------------------------------|
D-0-0-0-0--2-2-2-2--0-0-0-0--2-2-2-2-|
A-0-0-0-0--2-2-2-2--0-0-0-0--2-2-2-2-|
D-0-0-0-0--2-2-2-2--0-0-0-0--2-2-2-2-|

OUTRO: (acoustic) (strummed repeatedly for four measures and then hold for fade out)
e--0--
B--0--
G--2--
D--2--
A--2--
D--0--

            
            
Suggest correction
Creating personal tab
Creating personal tab
You can edit any tab online and save it as your Personal.

You can edit, replace or remove any tab part or add personal notes – all changes will be seen only by you.

Personal tabs can be accessed anytime from any device, even offline.
Learn more »
Give kudos to tab author, rate the tab!
1 2 3 4 5
comments
print report bad tab
5 comments total. Showing first comments.
-1 reply
Darksoulz777 30 Aug 11, 2007 09:13 PM

in the intro u can hear the 1st guitar hit the high e string here and there it goes like....
E|-----------0-------0---------0-----|
B|-----------------------------------|
G|-4h6p4-2-2--2-2-1h2--2-2-1h2--2-4-4| [repeat]

0 reply
joshdasian 62 Jun 22, 2008 02:05 PM

yea darksoulz777 is correct with the intro
but everything is else is great!

0 reply
Still Breath 167 Jun 02, 2009 12:37 PM

The G# you have in there should actually be a G#/A
As shown:
e|------------------------------------|
B|------------------------------------|
G|------------------------------------|
D|-0-0-0-0--2-2-2-2--4-4-4-4--6-6-6-6-|
A|-0-0-0-0--2-2-2-2--4-4-4-4--7-7-7-7-|
D|-0-0-0-0--2-2-2-2--4-4-4-4--6-6-6-6-|

But spot on otherwise... sick job

guest
You may want to rate the tab now too:
select rating
Wanna post a correction for this tab? Suggest correction