Oops, an error
Loading. Please wait.

Heart Dont Stand A Chance bass

1,759 views 75 this week
no commentswrite comment
1 2 3 4 5
x 4
add to favorites
×
Save as Personal and add changes to this tab that will be seen only by you. Learn more ›
×
You can save this tab as Personal to edit and correct it or add notes. All changes will be seen only by you. Learn more »
launch autoscroll
font size
0
reset
guitar tuner
edit
Autoscroll
slow
fast
+/-
esc
set tempo
stop
Author
Difficulty
[Intro]

G|-4-------3-------|-2---------------|-4-------3-------|-2---------------|
D|-----------------|-----------------|-----------------|-----------------|
A|-----------------|-----------------|-----------------|-----------------|
E|-----------------|-----------------|-----------------|-----------------|
   H       H         W                 H       H         W

G|-4-------3-------|-2---------------|-4-------3-------|
D|-----------------|-----------------|-----------------|
A|-----------------|-----------------|-----------------|
E|-----------------|-----------------|-----------------|
   H       H         W                 H       H

G|-----------------|-----------------|
D|---------------7-|---------------5-|
A|-----------------|-------------7---|
E|-5---5---5-------|-5---5-----------|
   Q   Q   Q   E E   Q   Q   Q   E E

[Verse 1]

G|-----------------|-----------------|-----------------|-----------------|
D|---------------7-|-------5-7-5-----|-----------------|-----------------|
A|-----------------|-------------7---|-3-------3---5---|---------5-----7-|
E|-5---5---5-------|-5---------------|-----------------|-3---------------|
   Q   Q   Q   E E   Q   Q S S E E E   Q   Q   Q   Q     Q   Q   Q.    E

G|-----------------|-----------------|-----------5-----|-----------------|
D|---------------7-|-------7---------|---------------5-|-----5---0---2---|
A|-----------------|---------5-------|-3---3-----------|-----------------|
E|-5---5-----------|-5---------------|-----------------|-3---------------|
   Q   Q   Q   E E   Q   E E Q.    E   Q   Q   E E E E   E E E E Q   Q

G|-----------------|-----------------|-----------------|-----------------|
D|-----7-------5---|-----------------|---------------7-|-----------------|
A|---------------7-|---------7-------|-----------------|-------------7---|
E|-5---------------|-5---------------|-5---5---5-------|-5---------------|
   Q   Q   Q   E E   Q   Q   H         Q   Q   Q   E E   Q   Q   Q   Q

G|-----------------|-----------------|-----5-----------|-----------------|
D|-----7-------5---|-----------7-----|-----------------|-------5-0-----2-|
A|---------------7-|---------------7-|-3-----------3-5-|-----------------|
E|-5---------------|-5-------5-------|-----------------|-3---------------|
   Q   Q   Q   E E   Q   Q   E E E E   Q   Q   Q   S E.  Q   E E Q.    E

G|-----------------|-----5-----------|-----5-----5-4---|-----------------|
D|-----7-----------|-------7---------|---------------5-|---------0---0-2-|
A|---------------7-|---------5-------|-3---------------|-----------------|
E|-5---------------|-5---------------|-----------------|-3---------------|
   Q   Q   Q   E E   Q   E E H         Q   E E E E E E   Q   Q   Q   S E.

G|-----------------|-----------------|-----------------|-----------------|
D|-----7-------5---|-----7-----------|-----7-----------|---------7---5---|
A|---------------7-|---------5---7---|-----------------|---------------7-|
E|-5---------------|-5---------------|-5-------5-------|-5---------------|
   Q   Q   Q   E E   E E E E Q   Q     Q   E E E E Q     Q   Q   Q   E E

G|-----------------|-----------------|-----------------|-------------7---|
D|-----7-----------|-----------------|-----------------|-----------------|
A|-----------------|-------------5-7-|-3-------3-------|---------5-------|
E|-5-------5-------|-5-------5-7-----|-----------------|-3---------------|
   Q   E E E E Q     Q   Q   E E E E   Q   Q   Q   Q     Q   Q   Q   Q

G|-----------------|-----------------|-----------------|-------------7---|
D|-----------------|-----------------|-----------------|-------5---7---7-|
A|-----------------|---------5---7---|-3-----------3-5-|---------5-------|
E|-5-------5---5---|-5---------------|-----------------|-3---------------|
   Q   Q   Q   Q     Q   Q   Q   Q     Q   Q   Q   S E.  Q.    E E E E E

[Solo]

G|-----------------|-----------9-7-----|-----------------|-----------------|
D|-----7-----------|-----7---------9---|-------------7---|-----------5-7---|
A|---------------7-|---------7-------7-|---------------7-|---------7-----7-|
E|-5---------------|-5-----------------|-5-------5-------|-5---------------|
   Q   Q   Q   E E   Q   E E E E S.S S.  Q   Q   Q   E E   Q   Q   E E E E

G|-----------------|---------------5-7---|-----------------|-----------------|
D|---7-------------|-----------5-5-----7-|---------------5-|-5---------------|
A|-----------------|-------5-7-----------|-3---------5-7---|---------5---7---|
E|-5-------5-------|-5-7-8---------------|-----------------|-----------------|
   E.S Q   Q   Q     E E E E S S E S S E   Q   Q   Q S S E   Q   Q   Q   Q 

G|-----------------|-----------------|
D|---7---------7---|---------7---7---|
A|-----------------|-----------------|
E|-5-------5-------|-5---------------|
   E.S Q   Q   Q     H       Q   Q

[Interlude]

G|-4-------3-------|-2---------------|-4-------3-------|-2---------------|
D|-----------------|-----------------|-----------------|-----------------|
A|-----------------|-----------------|-----------------|-----------------|
E|-----------------|-----------------|-----------------|-----------------|
   H       H         W                 H       H          W

G|-4-------3-------|-2---------------|-4-------3-------|
D|-----------------|-----------------|-----------------|
A|-----------------|-----------------|-----------------|
E|-----------------|-----------------|-----------------|
   H       H         W                 H       H

G|-----------------|-----------------|
D|---------------7-|---------------5-|
A|-----------------|-------------7---|
E|-5---5---5-------|-5---5-----------|
   Q   Q   Q   E E   Q   Q   Q   E E

[Verse 2]

G|-----------------|-----------------|-----------------|-----------------|
D|---------------7-|-------5-7-5-----|-----------------|-----------------|
A|-----------------|-------------7---|-3-------3---5---|---------5-----7-|
E|-5---5---5-------|-5---------------|-----------------|-3---------------|
   Q   Q   Q   E E   Q   Q S S E E E   Q   Q   Q   Q     Q   Q   Q.    E

G|-----------------|-----------------|-----------5-----|-----------------|
D|---------------7-|-------7---------|---------------5-|-----5---0---2---|
A|-----------------|---------5-------|-3---3-----------|-----------------|
E|-5---5-----------|-5---------------|-----------------|-3---------------|
   Q   Q   Q   E E   Q   E E Q.    E   Q   Q   E E E E   E E E E Q   Q

G|-----------------|-----------------|-----------------|-----------------|
D|-----7-------5---|-----------------|---------------7-|-----------------|
A|---------------7-|---------7-------|-----------------|-------------7---|
E|-5---------------|-5---------------|-5---5---5-------|-5---------------|
   Q   Q   Q   E E   Q   Q   H         Q   Q   Q   E E   Q   Q   Q   Q

G|-----------------|-----------------|-----5-----------|-----------------|
D|-----7-------5---|-----------7-----|-----------------|-------5-0-----2-|
A|---------------7-|---------------7-|-3-----------3-5-|-----------------|
E|-5---------------|-5-------5-------|-----------------|-3---------------|
   Q   Q   Q   E E   Q   Q   E E E E   Q   Q   Q   S E.  Q   E E Q.    E

G|-----------------|-----5-----------|-----5-----5-4---|-----------------|
D|-----7-----------|-------7---------|---------------5-|---------0---0-2-|
A|---------------7-|---------5-------|-3---------------|-----------------|
E|-5---------------|-5---------------|-----------------|-3---------------|
   Q   Q   Q   E E   Q   E E H         Q   E E E E E E   Q   Q   Q   S E.

G|-----------------|-----------------|-----------------|-----------------|
D|-----7-------5---|-----7-----------|-----7-----------|---------7---5---|
A|---------------7-|---------5---7---|-----------------|---------------7-|
E|-5---------------|-5---------------|-5-------5-------|-5---------------|
   Q   Q   Q   E E   E E E E Q   Q     Q   E E E E Q     Q   Q   Q   E E

G|-----------------|-----------------|-----------------|-------------7---|
D|-----7-----------|-----------------|-----------------|-----------------|
A|-----------------|-------------5-7-|-3-------3-------|---------5-------|
E|-5-------5-------|-5-------5-7-----|-----------------|-3---------------|
   Q   E E E E Q     Q   Q   E E E E   Q   Q   Q   Q     Q   Q   Q   Q

G|-----------------|-----------------|-----------------|-------------7---|
D|-----------------|-----------------|-----------------|-------5---7---7-|
A|-----------------|---------5---7---|-3-----------3-5-|---------5-------|
E|-5-------5---5---|-5---------------|-----------------|-3---------------|
   Q   Q   Q   Q     Q   Q   Q   Q     Q   Q   Q   S E.  Q.    E E E E E

[Breakdown]

G|-----------------|-----------------|-----------------|-----------------|
D|-----------------|-----------------|-----------------|-----------------|
A|-----------------|-5-----------5---|-----------------|-5-----------8---|
E|-0---------------|-----------------|-0---------------|-----------------|
   W                 H.          Q     W                 H.          Q

G|-----------------|-----------------|-----------------|-----------------|
D|-----------------|-----------------|-----------------|-----------------|
A|-----------------|-5-----------5---|-2---------------|-------------7---|
E|-0---------------|-----------------|-----------------|-0---------7-----|
   W                 H.          Q     W                 H       E E Q

G|-----------------|-----------------|-----------------|-----------------|
D|-----------------|-----------------|-------------2---|-----------------|
A|-------------7---|-5-----------5---|-----------2---2-|-5---------5-8---|
E|-0---------7-----|-----------------|-0---------------|-----------------|
   H       E E Q     H.          Q     H       E E E E   H       E E Q

G|-----------------|-----------------|---------4---4---|-----------------|
D|-------------2---|-----------------|-------4---4---3-|-2-2---2---------|
A|-----------2---2-|-5-----------5---|-2---------------|-----------------|
E|-0---------------|-----------5-----|-----------------|-----------------|
   H       E E E E   H       E E Q     Q.  S S E S E.E   E Q   Q   E Q

[Outro]

G|-4-------3-------|-2---------------|-4-------3-------|-2---------------|
D|-----------------|-----------------|-----------------|-----------------|
A|-----------------|-----------------|-----------------|-----------------|
E|-----------------|-----------------|-----------------|-----------------|
   H       H         W                 H       H          W

G|-4-------3-------|-2---------------|-4-------3-------||
D|-----------------|-----------------|-----------------||
A|-----------------|-----------------|-----------------||
E|-----------------|-----------------|-----------------||
   H       H         W                 H       Q   Q

            
            
Suggest correction
Creating personal tab
Creating personal tab
You can edit any tab online and save it as your Personal.

You can edit, replace or remove any tab part or add personal notes – all changes will be seen only by you.

Personal tabs can be accessed anytime from any device, even offline.
Learn more »
comments
print report bad tab
guest
You may want to rate the tab now too:
select rating
Wanna post a correction for this tab? Suggest correction