Oops, an error
Loading. Please wait.

Capsized chords

2,761 views 48 this week
1 commentread comment
1 2 3 4 5
x 7
add to favorites
×
Save as Personal and add changes to this tab that will be seen only by you. Learn more ›
×
You can save this tab as Personal to edit and correct it or add notes. All changes will be seen only by you. Learn more »
launch autoscroll
font size
0
reset
transpose
0
reset
display chords
guitar tuner
edit
Autoscroll
slow
fast
+/-
esc
set tempo
stop
Strumming
There is no strumming pattern for this song yet. and get +5 IQ
-------------------------------------------------------------------------------
                                Capsized - Andrew Bird
                                    Are You Serious
-------------------------------------------------------------------------------


[Intro]

           D            Am           D         (strumming starts on Am)
e|---------2-2----------0-0----------2-2~------------------------------------|
B|---------3-3----------1-1----------3-3~------------------------------------|
G|---------2-2----------2-2----------2-2~------------------------------------|
D|----2-0--0-0----------2-2-----2-0--0-0~------------------------------------|
A|-000---------000-3-0--0-0--000---------------------------------------------|
E|---------------------------------------------------------------------------|

[violin lead]

e|--17-----------------------------------------------------------------------|
B|----13---------------------------------------------------------------------|
G|------14-------------------------------------------------------------------|
D|---------12--12------------------------------------------------------------|
A|-----------15--15-12~------------------------------------------------------|
E|---------------------------------------------------------------------------|


[Verse 1]
             D
Now when you wake up
                Am
Night's falling someone is by your side
        D                                 Am
Pull it together, darling you're not alone
             D
But when you break up
               Am
Sky's falling, no one is on your side
            D                                 Am
Spoon dirty laundry, darling you're all alone


[Chorus] repeat intro riff

                  D              Am
And when you wake up, another sunrise
              D                    Am
Another break up, this ship is capsized
                  D              Am
And when you wake up, another sunrise
              D                   Am
Another break up, this ship is capsized
               D         Am
Just keep your lamp on

[electric guitar fill]

e|-14-12--10-8---8--7--5---7-------------------------------------------------|
B|--------10-8---8--7--5---5-------------------------------------------------|
G|-14-12--11-9---9--7--5---5----------repeat x3------------------------------|
D|-12-10--12-10--10-9--7---7-------------------------------------------------|
A|---------------------------------------------------------------------------|
E|---------------------------------------------------------------------------|


[Verse 2]
           D         Am
Now he's a dyin' bed maker
       D                                  Am
He's a dyin' bed maker Jesus gonna make my...
       D                          Am
It's a holy ghost, holy ghost religion
       D                                       Am
It's a holy ghost religion Jesus gonna make my...


[Chorus] repeat intro riff

                  D              Am
And when you wake up, another sunrise
              D                    Am
Another break up, this ship is capsized
                  D              Am
And when you wake up, another sunrise
              D                   Am
Another break up, this ship is capsized


[Verse 3]

             N.C.
And when you wake up
                 N.C.
Night's falling, someone is by your side
          N.C.                            
Pull it together, darling you're not alone
             N.C.
But when you break up
               N.C.
Sky's falling, no one is on your side
            N.C                            
Spoon dirty laundry, darling you're all alone
            D                                Am
Spoon dirty laundry, darling you're all alone
            D                                Am
Spoon dirty laundry, darling you're all alone


[Chorus] repeat intro riff
                  D              Am
And when you wake up, another sunrise
              D                    Am
Another break up, this ship is capsized

            
            
Suggest correction
Creating personal tab
Creating personal tab
You can edit any tab online and save it as your Personal.

You can edit, replace or remove any tab part or add personal notes – all changes will be seen only by you.

Personal tabs can be accessed anytime from any device, even offline.
Learn more »
comments
print report bad tab
1 comment total.
0 reply
aander222 10 Dec 08, 2017 06:23 PM, edited at 11:29 pm

The first 12-fret note in your violin intro should be on the A string, not the D string, as shown:e|--17-----------------------------------------------------------------------|B|----13---------------------------------------------------------------------|G|------14-------------------------------------------------------------------|D|---------------12----------------------------------------------------------|A|---------12--15--15-12~----------------------------------------------------|E|-----------------------

EDIT: nevermind, you were correct as originally posted.

guest
You may want to rate the tab now too:
select rating
Wanna post a correction for this tab? Suggest correction