Oops, an error
Loading. Please wait.

Mysterious Ways tab

955 views 1 this week
no commentswrite comment
1 2 3 4 5
3 more votes to show rating
add to favorites
×
Save as Personal and add changes to this tab that will be seen only by you. Learn more ›
×
You can save this tab as Personal to edit and correct it or add notes. All changes will be seen only by you. Learn more »
launch autoscroll
font size
0
reset
how to read this tab
guitar tuner
edit
Autoscroll
slow
fast
+/-
esc
set tempo
stop
Author
Difficulty
Mysterious Ways - Andrew White

This is less fluid than the original album version. I haven't seen him play it, but this 
is very close. There are 2 versions of the crazy ascent he does, both dodgy ... some 
frills are missing

The tuning is DADGAD, also known as D Modal or Celtic tuning


D||-----------------------------------|-----------------------------------|
A||-----------------------------------|-----------------------------------|
G||-------2-------2-------2--------2--|-------2-------2-------2--------2--|
D||-------0-------0-------0-----0-----|-------0-------0-------0-----0-----|
A||-----------------------------------|-----------------------------------|
D||--0-------x-------x-------0--------|--0-------x-------x-------0--------|

-----------------------------------|-----------------------------------|
-----------------------------------|-----------------------------------|
-------2-------2-------2--------2--|-------2-------2-------2-----------|
-------0-------0-------0-----0-----|-------0-------0-------0--------0--|
-----------------------------------|--------------------------0h-3h----|
--0-------x-------x-------0--------|--0-------x-------x----------------|

|------------------------------------|-----------------------------------|
|------------------------------------|-----------------------------------|
|*-------2-------2-------2--------2--|-------2-------2-------2--------2--|
|*-------0-------0-------0-----0-----|-------0-------0-------0-----0-----|
|------------------------------------|-----------------------------------|
|---0-------x-------x-------0--------|--0-------x-------x-------0--------|

-----------------------------------|-----------------------------------|
-----------------------------------|-----------------------------------|
-------2-------2-------2--------2--|-------2-------2-------2--------2--|
-------0-------0-------0-----0-----|-------0-------0-------0-----0-----|
-----------------------------------|-----------------------------------|
--0-------x-------x-------0--------|--0-------x-------x-------0--------|

-----------------------------------|-----------------------------------|
-----------------------------------|-----------------------------------|
-------2-------2-------2--------2--|-------2-------2-------2--------2--|
-------0-------0-------0-----0-----|-------0-------0-------0-----0-----|
-----------------------------------|-----------------------------------|
--0-------x-------x-------0--------|--0-------x-------x-------0--------|

-------------------------------------|--------------------------------------||
-------------------------------------|--------------------------------------||
-------0--------0h-2h-0-----------0--|-------0--------0h-2h-0-----------0--*||
----------0h-2-----------2h-0h-2-----|----------0h-2-----------2--0h-2-----*||
--3-------------------------------3--|--2-----------------------------------||
-------------------------------------|--------------------------------------||

----------------------------------|---------------------------------|
----------5----3-------3----------|--------------0------------------|
*---------0---------------4-------|---------4------------0-------0--|
*-------------------------0----5--|---------0---------------4-------|
----------------------------------|---------------------------------|
---0------0-------0-------0-------|--0------0-------0-------0-------|

---------------------------------|--------------------------------||
---------------------------------|--------------------------------||
-------0-------0-------0---------|-------------------------------*||
----------4---------------4------|--------------0----------------*||
--3-------3-------3-------3------|--3h----------5-----------------||
---------------------------------|--0------0-------0------0-------||

------------------------------------|------------------------------------|
------------------------------------|------------------------------------|
-------0--------0h-2h-0--------0----|-------0--------0h-2h-0--------0----|
----------0h-2-----------0h-2h------|----------0h-2-----------0--2h------|
--3---------------------------------|--2---------------------------------|
------------------------------------|------------------------------------|

-----------------------------------|-----------------------------------|
-----------------------------------|-----------------------------------|
-------2-------2-------2--------2--|-------2-------2-------2--------2--|
-------0-------0-------0-----0-----|-------0-------0-------0-----0-----|
-----------------------------------|-----------------------------------|
--0-------x-------x-------0--------|--0-------x-------x-------0--------|

------------------------------------|------------------------------------|
------------------------------------|------------------------------------|
-------0--------0h-2h-0--------0----|-------0--------0h-2h-0--------0----|
----------0h-2-----------0h-2h------|----------0h-2-----------0--2h------|
--3---------------------------------|--2---------------------------------|
------------------------------------|------------------------------------|

|------------------------------------|-----------------------------------|
|------------------------------------|-----------------------------------|
|*-------2-------2-------2--------2--|-------2-------2-------2--------2--|
|*-------0-------0-------0-----0-----|-------0-------0-------0-----0-----|
|------------------------------------|-----------------------------------|
|---0-------x-------x-------0--------|--0-------x-------x-------0--------|

-----------------------------------|-----------------------------------|
-----------------------------------|-----------------------------------|
-------2-------2-------2--------2--|-------2-------2-------2--------2--|
-------0-------0-------0-----0-----|-------0-------0-------0-----0-----|
-----------------------------------|-----------------------------------|
--0-------x-------x-------0--------|--0-------x-------x-------0--------|

-----------------------------------|-----------------------------------|
-----------------------------------|-----------------------------------|
-------2-------2-------2--------2--|-------2-------2-------2--------2--|
-------0-------0-------0-----0-----|-------0-------0-------0-----0-----|
-----------------------------------|-----------------------------------|
--0-------x-------x-------0--------|--0-------x-------x-------0--------|

-------------------------------------|--------------------------------------||
-------------------------------------|--------------------------------------||
-------0--------0h-2h-0-----------0--|-------0--------0h-2h-0-----------0--*||
----------0h-2-----------2h-0h-2-----|----------0h-2-----------2--0h-2-----*||
--3----------------------------------|--2-----------------------------------||
-------------------------------------|--------------------------------------||

----------------------------------|---------------------------------|
----------5----3-------3----------|--------------0------------------|
*---------0---------------4-------|---------4------------0-------0--|
*-------------------------0----5--|---------0---------------4-------|
----------------------------------|---------------------------------|
---0------0-------0-------0-------|--0------0-------0-------0-------|

---------------------------------|--------------------------------||
---------------------------------|--------------------------------||
-------0-------0-------0---------|-------------------------------*||
----------4---------------4------|--------------0----------------*||
--3-------3-------3-------3------|--3h----------5-----------------||
---------------------------------|--0------0-------0------0-------||

-------------------------------------|-------------------------------------|
-------------------------------------|-------------------------------------|
-------0--------0h-2h-0-----------0--|-------0--------0h-2h-0-----------0--|
----------0h-2-----------2h-0h-2-----|----------0h-2-----------2--0h-2-----|
--3----------------------------------|--2----------------------------------|
-------------------------------------|-------------------------------------|

-----------------------------------|-----------------------------------|
-----------------------------------|-----------------------------------|
-------2-------2-------2--------2--|-------2-------2-------2-----------|
-------0-------0-------0-----0-----|-------0-------0-------0--------0--|
-----------------------------------|--------------------------0--3-----|
--0-------x-------x-------0--------|--0-------x-------x-------0--------|

-------------------------------------|-------------------------------------|
-------------------------------------|-------------------------------------|
-------0--------0h-2h-0-----------0--|-------0--------0h-2h-0-----------0--|
----------0h-2-----------2h-0h-2-----|----------0h-2-----------2--0h-2-----|
--3----------------------------------|--2----------------------------------|
-------------------------------------|-------------------------------------|

-------------------------------------|-----------------0--------------0----|
-------------------------------------|-----------0--7--------------7-------|
-------------------0--------0--7t----|-----------------------7-------------|
-------------0--7t----------------0--|--7--0--7-----------7-----7----------|
-------0--5-----------0--5t----------|-------------------------------------|
--0----------------------------------|-------------------------------------|

----------------------------------|-------------------------------|
--9----9--7----9--10------9----7--|--------------9----------------|
----------------------------------|---------7---------------------|
----------------------------------|-------------------------------|
----------------------------------|-------------------------------|
--0-------0-------0-------0-------|--0------0-------0------0------|

----------------------------------|---------------------------------|
--9----9--7----9--10------9----7--|---------------------------------|
----------------------------------|---------7----7------------7--5--|
----------------------------------|---------------------------------|
----------------------------------|---------------------------------|
--0-------0-------0-------0-------|--0------0-------0------0--------|

------------------------------------|------------------------------------|
------------------------------------|------------------------------------|
-----0--------0--2--0--------0------|-----0--------0--2--0--------0------|
--------0--2-----------0--2---------|--------0--2-----------0--2---------|
--3---------------------------------|--2---------------------------------|
------------------------------------|------------------------------------|

-------------------------------------|-----------------0--------------0----|
-------------------------------------|-----------0--7--------------7-------|
-------------------0--------0--7t----|-----------------------7-------------|
-------------0--7t----------------0--|--7--0--7-----------7-----7----------|
-------0--5-----------0--5t----------|-------------------------------------|
--0----------------------------------|-------------------------------------|

|-----------------------------------|-------------------------------|
|---9----9--7----9--10------9----7--|--------------9----------------|
|*----------------------------------|---------7---------------------|
|*----------------------------------|-------------------------------|
|-----------------------------------|-------------------------------|
|---0-------0-------0-------0-------|--0------0-------0------0------|

----------------------------------|---------------------------------|
--9----9--7----9--10------9----7--|---------------------------------|
----------------------------------|---------7----7------------7--5--|
----------------------------------|---------------------------------|
----------------------------------|---------------------------------|
--0-------0-------0-------0-------|--0------0-------0------0--------|

------------------------------------|------------------------------------|
------------------------------------|------------------------------------|
-----0--------0--2--0--------0------|-----0--------0--2--0--------0------|
--------0--2-----------0--2---------|--------0--2-----------0--2---------|
--3---------------------------------|--2---------------------------------|
------------------------------------|------------------------------------|

-----------------------------------------|-----------------------------------------||
-----------------------------------------|---------------7--5-------------7--5-----||
-----------------------------------------|-------------------------7--------------*||
---------------------5---------5--12--0--|--7--0--7-------------------------------*||
--------------5--12----------------------|-----------12--------12-----12-----------||
--0----7--12------------7--12------------|-----------------------------------------||

----------------------------------|---------------------------------|
----------5----3-------3----------|--------------0------------------|
*---------0---------------4-------|---------4------------0-------0--|
*-------------------------0----5--|---------0---------------4-------|
----------------------------------|---------------------------------|
---0------0-------0-------0-------|--0------0-------0-------0-------|

---------------------------------|--------------------------------||
---------------------------------|--------------------------------||
-------0-------0-------0---------|-------------------------------*||
----------4---------------4------|--------------0----------------*||
--3-------3-------3-------3------|--3h----------5-----------------||
---------------------------------|--0------0-------0------0-------||

-------------------------------------|-------------------------------------|
-------------------------------------|-------------------------------------|
-------0--------0h-2h-0-----------0--|-------0--------0h-2h-0-----------0--|
----------0h-2-----------2h-0h-2-----|----------0h-2-----------2--0h-2-----|
--3----------------------------------|--2----------------------------------|
-------------------------------------|-------------------------------------|

-----------------------------------|-----------------------------------|
-----------------------------------|-----------------------------------|
-------2-------2-------2--------2--|-------2-------2-------2-----------|
-------0-------0-------0-----0-----|-------0-------0-------0--------0--|
-----------------------------------|--------------------------0--3-----|
--0-------x-------x-------0--------|--0-------x-------x-------0--------|

-------------------------------------|-------------------------------------|
-------------------------------------|-------------------------------------|
-------0--------0h-2h-0-----------0--|-------0--------0h-2h-0-----------0--|
----------0h-2-----------2h-0h-2-----|----------0h-2-----------2--0h-2-----|
--3----------------------------------|--2----------------------------------|
-------------------------------------|-------------------------------------|

---------------------------------|---------------------------------|
---------5----3-------3----------|--------------0------------------|
---------0---------------4-------|---------4------------0-------0--|
-------------------------0----5--|---------0---------------4-------|
---------------------------------|---------------------------------|
--0------0-------0-------0-------|--0------0-------0-------0-------|

---------------------------------|-------------------------------|
---------------------------------|-------------------------------|
-------0-------0-------0---------|-------------------------------|
----------4---------------4------|--------------0----------------|
--3-------3-------3-------3------|--3h----------5----------------|
---------------------------------|--0------0-------0------0------|

-------------------------------------|-------------------------------------|
-------------------------------------|-------------------------------------|
-------0--------0h-2h-0-----------0--|-------0--------0h-2h-0-----------0--|
----------0h-2-----------2h-0h-2-----|----------0h-2-----------2--0h-2-----|
--3----------------------------------|--2----------------------------------|
-------------------------------------|-------------------------------------|

-----------------------------------|-----------------------------------|
-----------------------------------|-----------------------------------|
-------2-------2-------2--------2--|-------2-------2-------2-----------|
-------0-------0-------0-----0-----|-------0-------0-------0--------0--|
-----------------------------------|--------------------------0--3-----|
--0-------x-------x-------0--------|--0-------x-------x-------0--------|

-------------------------------------|-------------------------------------||
-------------------------------------|-------------------------------------||
-------0--------0h-2h-0-----------0--|-------0--------0h-2h-0-----------0--||
----------0h-2-----------2h-0h-2-----|----------0h-2-----------2--0h-2-----||
--3----------------------------------|--2----------------------------------||
-------------------------------------|-------------------------------------||


This file is all my own work. I would welcome comments and oh please please somebody tab 
those runs

email: paul at brightley.com, music only, spammers: go away

            
            
Suggest correction
Creating personal tab
Creating personal tab
You can edit any tab online and save it as your Personal.

You can edit, replace or remove any tab part or add personal notes – all changes will be seen only by you.

Personal tabs can be accessed anytime from any device, even offline.
Learn more »
Give kudos to tab author, rate the tab!
1 2 3 4 5
comments
print report bad tab
guest
You may want to rate the tab now too:
select rating
Wanna post a correction for this tab? Suggest correction