Oops, an error
Loading. Please wait.

Emergence tab

version 2
version 2

Whole song

34 views 3 this week
no commentswrite comment
1 2 3 4 5
3 more votes to show rating
add to favorites
×
Save as Personal and add changes to this tab that will be seen only by you. Learn more ›
×
You can save this tab as Personal to edit and correct it or add notes. All changes will be seen only by you. Learn more »
launch autoscroll
font size
0
reset
how to read this tab
guitar tuner
edit
Autoscroll
slow
fast
+/-
esc
set tempo
stop
I am referencing this recording, 
https://www.youtube.com/watch?v=gmxtEeNjpQY&index=6&list=PLJ_MCCc9Yr18MykEGca1wI2C0XUrCgMdT ,
to write this tab

2/4
  |       |        |       |        |       |        |       |        |       |        |       |        
e|----------------|----------------|----------------|----------------|----------------|------3---------|
B|----------------|3-------2-------|3---------------|3---------------|--5-------------|3---------------|
G|10--------------|--------2-------|2-------0-----2-|2-------2-------|--7-------------|--------6-------|
D|----------------|5---------------|3-------2-------|0---------------|--8-----5---5---|5-----------7---|
A|12------13------|----------------|5---------------|--------0-------|5---------------|------5-5-------|
E|10--------------|5---------------|----------------|1-------1-------|3---------------|3-------5-------|
 
  |       |        |       |        |       |        |       |        |       |        |       |        
e|----------5-----|----------------|7---------------|----------------|5---------------|----------------|
B|6---------------|----------------|8---------------|----------------|3---------------|6---------------|
G|7---------------|------2---------|----------------|4-------7-------|----------------|----------------|
D|7---------------|--------0-------|----------------|----------5-----|3---------------|7-----------7---|
A|5-------8-------|0---------------|--------5-------|--------5-------|--------5-------|5-------5-------|
E|------6-1-------|----------------|3---------------|3---------------|1---------------|----------------|
 
  |       |        |       |        |       |        |       |        |       |        |       |        
e|0---------------|7---------------|----------------|------------3---|----------------|----------------|
B|--------3-------|----------------|--------3-------|2---------------|----------------|5-------2-------|
G|1---------------|--------7---4---|9-------3-------|2---------------|----------------|5-------2-------|
D|--------0-------|6---------------|7-------0-------|--------5-------|7-------8-------|5---------------|
A|----------------|--------5-------|----------------|4-------6-------|5-8---------5---|3-------4-------|
E|0-------------3-|0---------------|9-------1-------|0-------6-----5-|5---------------|----------------|
 
  |       |        |       |        |       |        |       |        |       |        |       |        
e|----------------|----------------|----------------|3---------------|1-------------0-|----------------|
B|3---------------|--------4-------|5---------------|2---------------|----------------|--------3-------|
G|--------3-------|2-------4-------|7---------------|2---------------|2-----2-0-------|2-------2-------|
D|3-------3-------|2-------1-------|6-------5-------|2-------3-------|0-------2-----0-|3---------------|
A|5-------4-------|3-------2-------|5---------------|4---------------|----------------|----------------|
E|3---------------|----------------|6---------5-----|--------5-------|----------------|----------------|
 
  |       |        |       |        |       |        |       |        |       |        |       |        
e|0---------------|--------6-------|----------5-----|----0-----------|--5-------------|0---------------|
B|0---------------|------------8---|5---------6-----|------------6---|----------------|3-------0-------|
G|------3---------|--------7-------|----------7-----|2-------2---7---|----2-----2-----|3---------------|
D|------5---------|--------5-------|----------7-----|----------------|----------------|5---------------|
A|------5---------|--------5-------|----------5-----|----0-------5---|----------------|1-------0-------|
e|----------------|----------------|5---------------|----------------|----------------|3---------------|
 
  |       |        |       |        |       |        |       |        |       |        |       |        
e|----------------|----------------|----------------|--------------8-|----------------|----------------|
B|----3-----------|2---------------|----------------|1---------------|3---------3---3-|----------------|
G|----------------|2---------2-----|----0-------0-2-|--------2---0-2-|------0-2-------|--2-----0---2---|
D|----5-----------|2---------0-----|--------------0-|3-0-----------3-|--3-0---0-----5-|3---3-0---------|
A|----------------|----------------|------0-3-------|--------3-----5-|--------3-0-5---|------------0-3-|
E|----5-----------|----------------|1---------------|1-3-----5-----3-|----3-----3---3-|----1-3---------|
 
  |       |        |       |        |       |        |       |        |       |        |       |        
e|----------------|----------------|------------3---|----------------|----------------|----------------|
B|------3-------5-|--------------5-|--3-----------5-|----------------|--------7-------|----------8-----|
G|------2-2-------|--------------2-|--2-0-7---------|----2-----------|0-9-7-----------|----------------|
D|0---3-3-----5-7-|----3-7-----5---|------7-----5-7-|--0---3-7-----5-|--7-7---7-------|----7---7-------|
A|--5---5---5-----|3-----5---5-----|3-----5---------|3-------5---5---|----5---5-------|5---5-----------|
E|--------1-----5-|--------1-3-----|--------1-----5-|----------1-3---|--8---5---------|----------------|
 
  |       |        |       |        |       |        |       |        |       |        |       |        
e|----------------|----------------|----------------|----------------|----------------|----------------|
B|----------3-----|----------------|----------------|----------------|----------------|----------------|
G|0-2-3---3-------|----5-----------|--0-------0-----|----------------|----------------|----2-----2-----|
D|--------7-------|----7-------7---|--------0---3-0-|----0-----0-0---|12--------------|5---------------|
A|--------5-------|----5-------5-8-|------3---------|--------3-------|12------10123---|5-------5---3---|
E|----------------|------------3---|3---------3-----|1-3-----5-------|101-------5-----|5-------3-------|
 
  |       |        |       |        |       |        |       |        |       |        |       |        
e|----------------|3---------------|----------------|----------------|----------------|----------------|
B|----------------|----------------|----------------|----3-----------|----------------|------3---3-----|
G|----------------|----------------|----------------|----------------|--0---------0-0-|--------0-2-----|
D|----------5-----|----------------|----------------|0---3-----------|0---3-0-----0---|----0-----3-----|
A|5---5-----5-----|0---5---------5-|--------5-------|--------5---0-3-|----------------|0-3---0---5-----|
E|5-------6-------|----------------|----------------|----3---3---3---|--------1-3-----|----------------|
 
  |       |        |       |        |       |        |       |        |       |        |       |        
e|----------------|----------------|----------0-----|----------------|----------------|----------------|
B|----------3-----|----------------|----------------|----------------|----------------|----------------|
G|----------------|----------------|--------2-------|--2---2---2-----|--0-------------|----0-2---------|
D|--5-------------|----------------|0---0-----------|5---------5-----|3-------0-------|--------2-0-----|
A|--------3-5-----|--5---5---------|--------0-4-----|------4-5-------|--------0---5---|0-------0-------|
E|3---------------|----1-3-----5-8-|----------2-----|----5-----3-----|--------3-------|----------------|
 
  |       |        |       |        |       |        |       |        |       |        |       |        
e|----------------|----------------|----------------|----------------|----------------|----------------|
B|----------------|----------------|--------------5-|----------3-----|----------------|------------3---|
G|----------------|----------------|----------------|----------------|----------7-----|----------2-----|
D|----0-0---------|----------------|--5-------0-----|----2-----0-----|--5-------7-----|------------5---|
A|0-----------5-8-|--5-----5---5---|5-------4-7-----|4---5---0-------|5-------3-5-----|5---------3-5---|
E|------3---5-3---|10------------3-|6-------------5-|----9-3---------|3---------------|--1-------------|
 
  |       |        |       |        |       |        |       |        |       |        |       |        
e|----------------|----------------|----------------|----------------|----------------|----------------|
B|----------------|----------------|----------------|--------5-----6-|--3-------------|----------------|
G|--2---------2---|------2---------|----------------|------------3---|----------------|----------------|
D|--3-------5-----|0---3-0-------5-|----0---0---7---|0---0-------7---|----------------|--------3-------|
A|--5-----5-------|----------------|0-3---0-----5---|--------5-------|5-------5---5---|------5-----5---|
E|--------3---5---|--------1-------|----------------|--------3-------|----------------|------3-----3---|
 
  |       |        |       |        |       |        |       |        |       |        |       |        
e|----------------|----------------|----------------|----------------|----------------|----------------|
B|----------------|----------------|----------------|----------------|----------------|----------------|
G|0---------------|2-0-------7-----|----------------|----------2-----|----------------|----------------|
D|------------7---|5---------------|----------0-----|--0-------------|----------------|--------------0-|
A|----------8-5---|5---------5-----|--------0-------|--------0-------|5---------------|0---------------|
E|5-1-----------1-|3-----------3---|1-3-------------|----1-3---------|------6-----3---|----------------|
 
  |       |        |       |        |       |        |       |        |       |        |       |        
e|--0-------------|----------------|----------------|----------------|--------8-------|----------------|
B|3-1-----5-------|----------------|------------3---|------3---------|3---6-----------|--------3-------|
G|--3-------7-----|--0-------------|--------------0-|----------------|----------------|--2-------------|
D|--12------------|0-------0-------|0---0-------0---|0-----5---------|----------------|0-----------0---|
A|--5-------------|----------------|--------0-------|--------5-----3-|5-------5-------|--------3-------|
E|--5-------------|3-----------3---|----3-----------|----3-3---3-5---|3---------1-----|3---------------|
 
  |       |        |       |        |       |        |       |        |       |        |       |        
e|0---------------|----------------|----------------|----------------|----------------|----------------|
B|----------------|3-------6-------|--------3-------|3---------------|----------------|----------------|
G|----------------|----------------|0---------------|--------0---0---|----------2-----|0-2-------0-----|
D|0---0---0---2-2-|------------3---|----0---0-6-----|0-----2---0-----|--3-------------|0-0-----0-------|
A|----0---4-------|4---5-----------|--0-----0-------|----0-----------|--5-----5-------|----------------|
E|------3---------|5---3---5-------|--------3-------|----3-----------|--3-------5-----|----------------|
 
  |       |        |       |        |       |        |       |        |       |        |       |        
e|------0---------|--------8-------|----------------|----------------|----------------|----------------|
B|3---------------|----3-----------|--5---3-------5-|----------------|----------------|3---------------|
G|--------------2-|----6-----------|--------------2-|------------7---|2-0-----6-------|2-7---------7---|
D|0---------0-----|----------------|----------------|--5-------4-7---|0---------------|0-7-5-------0-5-|
A|--------------0-|--7-4---5-5-----|--0-4-5-----5---|5-------5---5---|----------5-----|--5-5-------7---|
E|----------------|9-10--5---2-3---|--3-2---3---2---|----3---------2-|3---------5-----|2-----3-5-------|
 
  |       |        |       |        |       |        |       |        |       |        |       |        
e|----------------|----------------|----------------|----------------|----------------|----------------|
B|------------3---|----------------|--------6-------|--------------5-|----------------|3---------------|
G|2---------------|----2-------0-2-|----------------|0-2-----2-----7-|----2-------7---|------0-0-2-----|
D|4---3---5-----3-|0-----0-3-0-----|0-3---------3---|------3-------0-|--------2---7---|----0---------0-|
A|----5-5---------|----0---------0-|--------5---5-5-|--0---5-------7-|----0-4-------5-|----------0-3---|
E|3-----------3---|------3---------|----------------|3---3---------5-|3---3-------5---|----------3-----|
 
  |       |        |       |        |       |        |       |        |       |        |       |        
e|----------------|----------------|----------------|----------------|1---------------|----------------|
B|----------------|----------------|----------------|----5-----------|------------3---|------------3---|
G|0-0---2-------2-|----2---2-----0-|2-------0-2-----|--2---------2---|----------------|2---------------|
D|--3-------0-0-0-|----0-------0---|------2-0-----2-|0-5-----2-------|0-3-----------5-|--0---0-------3-|
A|----------------|--------0-4-----|--0-4-------0---|----0-----5---5-|--------0---5---|----------0-5---|
E|------1-3-------|1---3-----2-----|--------------3-|----3-------3---|3---------------|------------3---|
 
  |       |        |       |        |       |        |       |        |       |        |       |        
e|----------------|----------------|----------------|----------------|----------------|----------------|
B|----0-----------|----------0-3---|----------------|----------3-----|--6-------------|------------3---|
G|--0---2-----0---|--------------0-|----------4-----|2---2---------2-|----------------|------2---2---2-|
D|0---0-----0-----|0-----------0---|7-------5-------|----5-------5---|--------7-------|5---------0---2-|
A|--------0-2-----|--2-------------|--5---2-5-------|--5---5---5-----|5---------5---5-|--------0---5---|
E|------3-3---3---|3-------3-------|----5---3-------|3-------3-------|--3---------3---|------------5-0-|
 
  |       |        |       |        |       |        |       |        |       |        |       |        
e|----------0-----|----------------|----------------|----------------|----------------|----------------|
B|----------------|----------0-----|--------------5-|----3---2-------|--5-------------|----------------|
G|--------2-2-----|--2---------1---|2-----2---3---7-|--------0-------|--------7-------|--7---------2---|
D|----0-----------|----2---0-----2-|0-------3-0---7-|5---0-------2-0-|--7-----7-------|7-------7-------|
A|--0---2---------|2-------0---4---|------0---------|----------------|4---------8-----|--------10------|
E|4-------0-4-----|----0-4---------|--------------5-|--------2-------|3-5-------------|5-3-------------|
 
  |       |        |       |        |       |        |       |        |       |        |       |        
e|----------------|----------------|----------------|----------------|----------------|----------------|
B|3-----2-----2---|--3-------------|----------------|--------3-------|----------------|--------3-------|
G|--------------2-|----------------|----------------|2---------------|----0---2-----0-|----------0-2---|
D|--------2-0-----|0-3-------------|----------------|----------------|----------------|----------------|
A|----4-------4---|----------------|----------------|----------------|----------------|----------------|
E|----5-3---------|--1-------------|----------------|----------------|----------------|----------------|
 
  |       |        |       |        |       |        |       |        |       |        |       |        
e|----------------|----------------|----------------|----------------|----------------|----------------|
B|--3-------------|----------------|----------------|--------3-------|----------------|----------------|
G|0-2---------7---|------------2---|--0-------------|--------2-------|7---------------|----------------|
D|--5-------------|0---3-0-----0-3-|0-0---------12--|7-----7-5-8-----|8-------7-------|5---7-----------|
A|--5-------8---10|------------0---|------------12--|------0-5-------|1---10--5-------|--7-5---5---7-5-|
E|--3-----103-10--|------3-----3---|------------10--|------6-3-3-----|10--------5-----|3-----5-6-------|
 
  |       |        |       |        |       |        |       |        |       |        |       |        
e|----------------|----------------|----------------|----------------|----------------|----------------|
B|----------------|----------------|----------5-----|--------------2-|----------------|----------------|
G|----------------|--2-------7-----|----7-----------|0-3---3---3-2---|----------------|2-----------0-2-|
D|----------------|--5-------7-----|7---7-5-7-------|----7-5---------|0-5-7-7---------|--0-----3-------|
A|--------5-------|5---------5-----|5---5-----------|----5-----------|7-----0---7-----|0-------------0-|
E|3---3-----------|--------3-------|--3-------------|------3-----5---|------3---------|--------3-----3-|
 
  |       |        |       |        |       |        |       |        |       |        |       |        
e|----------------|----------------|----------------|----------------|----------------|----------------|
B|----------------|----------3-----|----------------|----------------|--3-------3-----|----------------|
G|----0-----------|----------5-----|0-0-------0-----|--------------0-|2---------2-----|----------------|
D|------3-0-----5-|5---5---7-3-----|--------0-3-----|--0---------0---|3-3-------------|0---0---0-------|
A|3-------------5-|--3-------------|----3-----------|--------3-------|----------------|------------0-3-|
E|--------------3-|--3-------3-----|----5-3---------|1-3-----5-------|--3-------------|--------3---3---|
 
  |       |        |       |        |       |        |       |        |       |        |       |        
e|----------------|----------------|----------------|----------------|----------------|----------------|
B|----------------|----------------|----------------|----------------|----------------|----------------|
G|----------------|------0---------|----------------|----------------|----------------|----------------|
D|0---3-0-3---5---|--0-----3-0---0-|----------------|----------------|----------------|----------------|
A|----------------|0---------------|------3-5-------|--8-----5-------|----------------|----------------|
E|--3-----1---3---|--3---3-----1-3-|----5-------5---|--------5-------|----------------|----------------|

            
            
Suggest correction
Creating personal tab
Creating personal tab
You can edit any tab online and save it as your Personal.

You can edit, replace or remove any tab part or add personal notes – all changes will be seen only by you.

Personal tabs can be accessed anytime from any device, even offline.
Learn more »
Give kudos to tab author, rate the tab!
1 2 3 4 5
comments
print report bad tab
guest
You may want to rate the tab now too:
select rating
Wanna post a correction for this tab? Suggest correction