Oops, an error
Loading. Please wait.

In Sorrows Wake tab

version 2
version 2

Whole song

Interactive

43 views 3 this week
no commentswrite comment
1 2 3 4 5
3 more votes to show rating
add to favorites
×
Save as Personal and add changes to this tab that will be seen only by you. Learn more ›
×
You can save this tab as Personal to edit and correct it or add notes. All changes will be seen only by you. Learn more »
launch autoscroll
font size
0
reset
how to read this tab
guitar tuner
edit
Autoscroll
slow
fast
+/-
esc
set tempo
stop
I am referencing this recording,
https://www.youtube.com/watch?v=UPpsgHQ6P68&list=RDEMjTnM8pwqN5oy-ts8HH-hbg&index=23 ,
to write this tab

Time signature: is not consistant 

e|--------------------------7---------|
B|--------5---------10----------------|
G|5-7-------------10------------------|
D|5-------5-------4-------------------|
A|----------------1010------9---------|
E|--------------------------5---------|
 
e|----------------7--------------------------------------------------------------------------------------|
B|--------5-----------8-------------------8-----------------------------------1--------------------------|
G|5---------------------------4-----------------0-9-------------------12------------4-----0-----5---7-7--|
D|5---------------5---5-------5-----10--------------------------10----14------2-----5-----7-------5------|
A|----------------------------------10----10----1210------------10------------------8-----5--------------|
E|------------------5---------------------------10--------13------------------1-----10--------------5----|
   
e|-----------------------------------------------------------------------------------------------------------|
B|------------------5-----------------------7----------------------------------------------------------12----|
G|------4-----5---0-----7-6-5-------4-------0-----------------------------14---------------------------------|
D|5-----------5---7---7---------------------7-----------------------7-----12-----14----15--------------------|
A|------5-------------------7---------------5-------7-------8------------------------------------------0-----|
E|------------------------------------------------------------------------14-----15----15-----15-------------|

e|------------8-7-3-----------------------5-3----------------------------------------------------------------|
B|------5-------------------------------------7-------------------5-------1-----0-------------1--------------|
G|5---------------------------4-----5---------9-------------5-------------------0-----2---------0-----------4|
D|7-------------5-5-----------5-----5-----5---7-------4-----5-------------2-----------0---------------------5|
A|10------------------------------------------5-------8------------------------------------------------------|
E|----------------5-----------------------------------10------------------1---------------------------3-----3|
 
e|--------------------------------------------------------------------------------------------|
B|------0-------------5-----------------------------------------------------------------------|
G|------0-----5-------------12------------9-------12--------10--------------------------------|
D|0-------------------5-----10------12----------------12--------------------------------------|
A|------------7-------5-----10------------------------------1-------1-----1-----2-9-2-2-------|
E|3-----------5-------------12------------13------------------------13----------6-------------|
 
e|------12------------12----10--------------------10------------------------------------------------------|
B|13------------------------------13--12----13----------12------13----5-----6-----8-----------------------|
G|------------12------------------------------------------------10----0-----------------------------------|
D|--------------------------------------------------------------5-----7-----5-----7-------5---------------|
A|10----10----10--------------------9-------2-----10----10------12------------------------9---------------|
E|--------------------------------------------------------------10----------------------------------------|
 
e|8---------------7-------8-----------------3-----------------------------------|
B|--------5---------------------12----10----------5-------------------3---------|
G|----------------7-------9-----0-----------4-----------5-----2-4-----2---------|
D|5---------7-----5-------------12----10----5-----5-----2-----5-----------------|
A|----------------5-------10----12----------------------------3-------5---------|
E|----------------5-------10----------------5-------------------------1---------|
 
e|------0---------------------|
B|------------1-------3-------|
G|2-----------0-----4---------|
D|------------------5---------|
A|------------------5---------|
E|------------------3---------|
 
e|----------------------------------------------------------0-----1-----------------3-------------------|
B|1-----0-------3-------------------------0-----1-----3-----------------5-----------------5--------3----|
G|0-----0-------0-----5-------------2-----2-----0-----0-----0-----0---------5--------------------4-4----|
D|--------------------5-------2-----5-----5-----------------------------5---5-------5--------------5----|
A|-------------------------------------------------------------------------------------------------9----|
E|--------------------5-------------------------------------------------3-3----------------------3------|
 
e|----------------------------------------------------------------------------------------------------------|
B|------1-------0---------1-----0---------------------------------------------------------------------------|
G|0-----------------------------0-----2-----0-----0---------------7-0-------7-------------------------------|
D|4-----------2-----------------------5-----2-----2-0-----2-------7-7-----4-----7---7------------4----------|
A|--------------------------------------------------2-------------5-----------7---5-------------------------|
E|------------0-------------------------------------------0-------------------------------5-----------------|
 
e|-------------------3-------------2-----------3-------------------------------------------------5-----3----|
B|0-------1-----------------1------3-----------------3-5-----------------5-----------5-----6----------------|
G|0----------------0---------------------------------4-------4-----5-----------7----------------------------|
D|0-------2------------3---------4-------5-----5-----4-6-----------7-----5---5-------------5----------------|
A|-----------------------------------------------------------------10----------------------5-----5-----7----|
E|--------1----------------------2-3-----3-----3-------5---------------------7-------------5----------------|
   
e|------0-------------------------------------1---0-3-----1-----------|
B|1-----------------3-------------------------------------------------|
G|------------0---------------0-----------------0-0-----------12------|
D|--------------------------------------------4-----------------------|
A|------3-----------2-------------------------------3---------10------|
E|------------------------------------3-------3---------------12------|
 
e|--------------------------------------------------------------------------------------|---------|
B|------------------8---------------------------------------5---------------------------|---------|
G|--------7-----------------------------4-------5-------7-----------2-------4-----------|---------|
D|10------5-------5---------------------5-----------------7-5-------5-------2-----------|0--------|
A|10--------------------------------------------7-----------3---------------------------|---------|
E|--------7-----------------3-----3-------------5---------------------------4-----------|---------|
 
e|--------------------------------------------------------------------0---------------|
B|------------3-------------------------------------------------------0-----3---------|
G|--1---------0-----5-----4-----2---------------------2-------5-------2-------------5-|
D|--2---------------------5-----5-----2-------3-----------------------5-----5-----5---|
A|--------------------------------------------5---------------------------------------|
E|--0---------------5-------------------------------------------------------3---------|
 
e|----------------10------------------------------------------------|
B|------------------------------------------------------------------|
G|--------------------------------------------------------7---------|
D|------9-----------------------------------------------------------|
A|------10------------------10----9---------------------------------|
E|--------------------------------7-----------7-----------7---------|
 
e|--------7---------------------7-------3-----------------------3--------------------------------------------|
B|------------------------5---------------------------------------5-------------------5---------1---0--------|
G|--------0---------5-----------------------------2---5-------------------------5-----------------------2----|
D|--------7---------5-----5-----5-------5-------5-----5---------5-7-------------5---------5-----3-------0----|
A|----------------------------------------------------------------5-------8---------------------7------------|
E|--7-----5---7-------------------------5-------------------------------------------------1------------------|
  
e|------------------------------------------------------------------|
B|1-------3---------------0-----------5-----3-----------------7-----|
G|------------------0-----------5---2-------------5-----4-2---0-----|
D|------------------------------5---5-------------2-----------7-----|
A|--------0---------------------5-----------------------------5-----|
E|------------------------------------------------------------------| 
  
e|--------------------------------------------------------------7---|
B|------------------------------------5-----------------------------|
G|------------------------7-----------0-----10----------------------|
D|----------------7-------4-------4---7-------------------------5---|
A|7-------8---------------------------------10------10--------------|
E|------------------------------------------10------------------5---|

e|--------------------8-7-3-----------------------5-3-----------------------------|
B|--------------5-------------------------------------7---------------------5-----|
G|------5---------------------------4-----5---------2-9---------------5-----------|
D|------7-------------5-5-5---------5-----5---------------------------5-----5-----|
A|------10--------------------------------------------5---------8-----------7-----|
E|------------------------5-------------------------------------------------------| 
 
e|--------------------------------|
B|--1-------0-------------1-------|
G|0---------------2-----------0---|
D|2---3-2---------5-------------0-|
A|----------------5---------------|
E|1-----------------------------3-|

e|3---------------------------------3-------------------------------------------------------------------8----|
B|--------------------------1-------5------------------------------------------------------------------------|
G|4-------------------4---------------------12----------9-------12------10-----------------------------------|
D|------------------5-------2-------5-------10----12----------------------------3----------------------------|
A|----------------5---------0-------5-------------10--------------------1---1---2----------------------------|
E|3-----------------------------------------12----------13----------------------6---6-7-------7-6-----6-6----|
 
e|12--------------12--10--------------------------------------------------|
B|--------------------------13------------13----15------------------------|
G|--------------------------------16----------------16--------17----------|
D|--------------------------------4---------------------0-----15----14----|
A|------10--------10--------------14------2-------------------10----------|
E|----------------7---------------15----------------15--------17----15----| 
 
e|----------------------------------------------7---------8-----7-----5-----3--------------------------------|
B|--6-----8-------10--------------13----------------------5-----------------------5-----------------3--------|
G|----------------0---------------0-------9-----7---------------7-----5-----4-----------5-----4-----2--------|
D|--7-----------------------------------------------------------5-----5-----7-----5-----5-5-7-------3------7-|
A|----------------12------2-------2-------10--------------------------------------------7-----------5--------|
E|--------------------------------10------------5---------------------------5---------------8-------1--------|
 
e|--0---------------|
B|--------1---------|
G|------------------|
D|------------------|
A|------------------|
E|------------------|
  
e|------------------------------------------------------------------0-----1-----0------3--------0------------|
B|------------------3-----------------------------------------3-----0------------------1---------------0-3---|
G|4-------5---4-4-----------5---------------2---4-----5-------------0-----------------------0---0------------|
D|--------5---5-----5-------5-------2-------5---------5-------5----------------------------------------------|
A|5---------------------------------------------------5------------------------------------------------------|
E|3-------------------------5---------------------------------------------------3--3-------------------3-3---|

e|----------------------------------------------------------------------------------|
B|------3-----------1---------0-----------1-----0-------------------0---------------|
G|------------0---0-0---------0-----------------0-----2-----0-----------------------|
D|--------------4-0-----------2-----------------------2-----------2---0-----2-----0-|
A|--------------------------------------------------------------------2-----0-------|
E|----------------------------0---------------------------------------------0-------|
 
e|----------------------0-------------------------------------------|
B|----------------------------------------------------------0-----1-|
G|2---------------------------------------------------------0-------|
D|5-------4-----2-------0-----------4-------0-----------------0-3---|
A|--------------------0-----------0-----------------------------7---|
E|--------------------------------------------------------------1-1-| 
 
e|----------------------------------------------3-----12--------------0-----------------1---5---|
B|------------------------------3-----------------3-0-------0-----1-----------8-5-------8-------|
G|--------------------------------------------------0-1-----0-----2---0-----7-------------------|
D|----------------3---10--------4-------5-------------------------5---------5-----------5---5---|
A|----------10--------------------------------------0---------------------------------------5---|
E|----------------1---------3---3-------3-------3---------------------------7-----------5-------| 
   
e|------------------------------------------------------1---0-------|
B|--------------------------------3---------------------------------|
G|--------------------9-------------------0---------------0-0-------|
D|--------------10--------------------------------------------------|
A|----10--------10----------10----2---------0-------------3---------|
E|----12--------------8-----------3-------------3-3-----3-----------|
  
e|1-----3-------------------------------------------|
B|------------1-------------------------------------|
G|0---0-------0-------7---------------------------4-|
D|----2---------------5---------5-----------------5-|
A|--------------------------------------------------|
E|--------------------7-------------------3-3-------|
 
e|------------------------------------------------------------------|
B|------1-----3---5-------------------------------------3-------1---|
G|------------0-2-------0-------4---------------1-------0-----------|
D|----2-----------5-----7-------2---------------2-------------------|
A|----0-----------3-----7---------------------------------------0---|
E|------------------------------4---------------0-------------------|
 
e|----------------------0-----------------0-------------------------|
B|--------------------------------1-------0-----3---3-------0-------|
G|----0---2-------2-2-------------2-------2-------0-5---------------|
D|--------------2---2-----3-------5-------5-------------------------|
A|------------------5-----------------------------------------------|
E|----------------------------------------------3-------------------|

            
            
Suggest correction
Creating personal tab
Creating personal tab
You can edit any tab online and save it as your Personal.

You can edit, replace or remove any tab part or add personal notes – all changes will be seen only by you.

Personal tabs can be accessed anytime from any device, even offline.
Learn more »
Give kudos to tab author, rate the tab!
1 2 3 4 5
comments
print report bad tab
guest
You may want to rate the tab now too:
select rating
Wanna post a correction for this tab? Suggest correction