Oops, an error
Loading. Please wait.
210,870 views 102 this week
114 commentsread comments
1 2 3 4 5
x 145
add to favorites
×
Save as Personal and add changes to this tab that will be seen only by you. Learn more ›
×
You can save this tab as Personal to edit and correct it or add notes. All changes will be seen only by you. Learn more »
launch autoscroll
font size
0
reset
how to read this tab
guitar tuner
edit
Autoscroll
slow
fast
+/-
esc
set tempo
stop
Adventure - Angels And Airwaves
Tabbed by: kiefermatot
Email: kiefer.is.niifty@hotmail.com
Tuning: Standard
There is a Capo on the second fret. It's optional though. It doesn't really sound 
if it's not on. Seeing as you only need it to play the "A" string in Guitar One's Intro and Chorus.
The notes in brackets are optional notes. You can choose to play them, or not. It will 
go along with the song.
If you have any corrections, leave a comment, or feel free to send me an email, or PM.

Guitar One's Parts:

[Intro]
e|------------------|------------------|-------------------|---------------|
B|------------------|------------------|-------------------|---------------|
G|----11---------11-|----11--------11--|----11----------11-|---11-------11-|
D|-9------9---9-----|-8------8---8-----|-------------------|-8----8---8----|
A|(0)----(0)-(0)----|(0)----(0)-(0)----|-11-----11---11----|(0)--(0)-(0)---|
E|------------------|------------------|-------------------|---------------|

e|------------------|------------------|-------------------|---------------|
B|------------------|------------------|-------------------|---------------|
G|----11---------11-|----11--------11--|----11----------11-|---11-------11-|
D|-9------9---9-----|-8------8---8-----|-------------------|-8----8---8----|
A|(0)----(0)-(0)----|(0)----(0)-(0)----|-11-----11---11----|(0)--(0)-(0)---|
E|------------------|------------------|-------------------|---------------|

e|------------------|------------------|-------------------|---------------|
B|------------------|------------------|-------------------|---------------|
G|----11---------11-|----11--------11--|----11----------11-|---11-------11-|
D|-9------9---9-----|-8------8---8-----|-------------------|-8----8---8----|
A|(0)----(0)-(0)----|(0)----(0)-(0)----|-11-----11---11----|(0)--(0)-(0)---|
E|------------------|------------------|-------------------|---------------|

e|------------------|------------------|-------------------|---------------|
B|------------------|------------------|-------------------|---------------|
G|----11---------11-|----11--------11--|----11----------11-|---11-------11-|
D|-9------9---9-----|-8------8---8-----|-------------------|-8----8---8----|
A|(0)----(0)-(0)----|(0)----(0)-(0)----|-11-----11---11----|(0)--(0)-(0)---|
E|------------------|------------------|-------------------|---------------|

e|------------------|------------------|-------------------|---------------|
B|------------------|------------------|-------------------|---------------|
G|----11---------11-|----11--------11--|----11----------11-|---11-------11-|
D|-9------9---9-----|-8------8---8-----|-------------------|-8----8---8----|
A|(0)----(0)-(0)----|(0)----(0)-(0)----|-11-----11---11----|(0)--(0)-(0)---|
E|------------------|------------------|-------------------|---------------|

e|------------------|------------------|-------------------|---------------|
B|------------------|------------------|-------------------|---------------|
G|----11---------11-|----11--------11--|----11----------11-|---11-------11-|
D|-9------9---9-----|-8------8---8-----|-------------------|-8----8---8----|
A|(0)----(0)-(0)----|(0)----(0)-(0)----|-11-----11---11----|(0)--(0)-(0)---|
E|------------------|------------------|-------------------|---------------|

[Pre-verse] With heavy Delay.
e|--------------------|-------------------|-----------------|--------------|
B|--------------------|-------------------|-----------------|--------------|
G|-11-11-11-9-9-9-8-8-|-9-9-9-8-8-8-------|-9-9-9-8-8-8-----|--------------|
D|--------------------|-------------9-9---|-------------9-9-|--------------|
A|--------------------|-------------------|-----------------|-7----6-------|
E|--------------------|-------------------|-----------------|------------7-|

e|--------------------|-------------------|-----------------|--------------|
B|--------------------|-------------------|-----------------|--------------|
G|-11-11-11-9-9-9-8-8-|-9-9-9-8-8-8-------|-9-9-9-8-8-8-----|--------------|
D|--------------------|-------------9-9---|-------------9-9-|--------------|
A|--------------------|-------------------|-----------------|-7----6-------|
E|--------------------|-------------------|-----------------|------------7-|

e|----------------------------|------------------------|
B|----------------------------|------------------------|
G|-11--X--X--11--X--X--11--13-|-9--X--X--9--X--X--9--X-|
D|----------------------------|------------------------|
A|----------------------------|------------------------|
E|----------------------------|------------------------|

e|----------------------------|------------------------|
B|----------------------------|------------------------|
G|-11--X--X--11--X--X--11--13-|-9--X--X--9--X--X--9--X-|
D|----------------------------|------------------------|
A|----------------------------|------------------------|
E|----------------------------|------------------------|

e|--------------------|-------------------|-----------------|--------------|
B|--------------------|-------------------|-----------------|--------------|
G|-11-11-11-9-9-9-8-8-|-9-9-9-8-8-8-------|-9-9-9-8-8-8-----|--------------|
D|--------------------|-------------9-9---|-------------9-9-|--------------|
A|--------------------|-------------------|-----------------|-7----6-------|
E|--------------------|-------------------|-----------------|------------7-|

[Verse]
Guitar 1 only strums these chords once each. Listen for timing.
e|-----|-----|-----|-----|
B|-----|-----|-----|-----|
G|-----|--9--|-----|-----|Play whole thing 4 times over.
D|--6--|--9--|--9--|--6--|
A|--6--|--7--|--9--|--x--|
E|--4--|-----|--7--|--4--|

[Chorus]
e|------------------|------------------|-------------------|---------------|
B|------------------|------------------|-------------------|---------------|
G|----11---------11-|----11--------11--|----11----------11-|---11-------11-|
D|-9------9---9-----|-8------8---8-----|-------------------|-8----8---8----|
A|(0)----(0)-(0)----|(0)----(0)-(0)----|-11-----11---11----|(0)--(0)-(0)---|
E|------------------|------------------|-------------------|---------------|

e|------------------|------------------|-------------------|---------------|
B|------------------|------------------|-------------------|---------------|
G|----11---------11-|----11--------11--|----11----------11-|---11-------11-|
D|-9------9---9-----|-8------8---8-----|-------------------|-8----8---8----|
A|(0)----(0)-(0)----|(0)----(0)-(0)----|-11-----11---11----|(0)--(0)-(0)---|
E|------------------|------------------|-------------------|---------------|

[Post Chorus]
e|--------------------|-------------------|-----------------|--------------|
B|--------------------|-------------------|-----------------|--------------|
G|-11-11-11-9-9-9-8-8-|-9-9-9-8-8-8-------|-9-9-9-8-8-8-----|--------------|
D|--------------------|-------------9-9---|-------------9-9-|--------------|
A|--------------------|-------------------|-----------------|-7----6-------|
E|--------------------|-------------------|-----------------|------------7-|

e|--------------------|-------------------|-----------------|--------------|
B|--------------------|-------------------|-----------------|--------------|
G|-11-11-11-9-9-9-8-8-|-9-9-9-8-8-8-------|-9-9-9-8-8-8-----|--------------|
D|--------------------|-------------9-9---|-------------9-9-|--------------|
A|--------------------|-------------------|-----------------|-7----6-------|
E|--------------------|-------------------|-----------------|------------7-|

[Verse]
Guitar 1 only strums these chords once each. Listen for timing.
e|-----|-----|-----|-----|
B|-----|-----|-----|-----|
G|-----|--9--|-----|-----|Play whole thing 4 times over.
D|--6--|--9--|--9--|--6--|
A|--6--|--7--|--9--|--x--|
E|--4--|-----|--7--|--4--|

[Chorus]
e|------------------|------------------|-------------------|---------------|
B|------------------|------------------|-------------------|---------------|
G|----11---------11-|----11--------11--|----11----------11-|---11-------11-|
D|-9------9---9-----|-8------8---8-----|-------------------|-8----8---8----|
A|(0)----(0)-(0)----|(0)----(0)-(0)----|-11-----11---11----|(0)--(0)-(0)---|
E|------------------|------------------|-------------------|---------------|

e|------------------|------------------|-------------------|---------------|
B|------------------|------------------|-------------------|---------------|
G|----11---------11-|----11--------11--|----11----------11-|---11-------11-|
D|-9------9---9-----|-8------8---8-----|-------------------|-8----8---8----|
A|(0)----(0)-(0)----|(0)----(0)-(0)----|-11-----11---11----|(0)--(0)-(0)---|
E|------------------|------------------|-------------------|---------------|

e|------------------|------------------|-------------------|---------------|
B|------------------|------------------|-------------------|---------------|
G|----11---------11-|----11--------11--|----11----------11-|---11-------11-|
D|-9------9---9-----|-8------8---8-----|-------------------|-8----8---8----|
A|(0)----(0)-(0)----|(0)----(0)-(0)----|-11-----11---11----|(0)--(0)-(0)---|
E|------------------|------------------|-------------------|---------------|

e|------------------|------------------|-------------------|---------------|
B|------------------|------------------|-------------------|---------------|
G|----11---------11-|----11--------11--|----11----------11-|---11-------11-|
D|-9------9---9-----|-8------8---8-----|-------------------|-8----8---8----|
A|(0)----(0)-(0)----|(0)----(0)-(0)----|-11-----11---11----|(0)--(0)-(0)---|
E|------------------|------------------|-------------------|---------------|

e|------------------|------------------|-------------------|---------------|
B|------------------|------------------|-------------------|---------------|
G|----11---------11-|----11--------11--|----11----------11-|---11-------11-|
D|-9------9---9-----|-8------8---8-----|-------------------|-8----8---8----|
A|(0)----(0)-(0)----|(0)----(0)-(0)----|-11-----11---11----|(0)--(0)-(0)---|
E|------------------|------------------|-------------------|---------------|

e|------------------|------------------|-------------------|---------------|
B|------------------|------------------|-------------------|---------------|
G|----11---------11-|----11--------11--|----11----------11-|---11-------11-|
D|-9------9---9-----|-8------8---8-----|-------------------|-8----8---8----|
A|(0)----(0)-(0)----|(0)----(0)-(0)----|-11-----11---11----|(0)--(0)-(0)---|
E|------------------|------------------|-------------------|---------------|

[Bridge]
"I cannot live, I can't breathe.. unless, you do this with me.."
e|------------------|-----------------|-----------------|-----------------|
B|------------------|-----------------|-----------------|-----------------|
G|------------------|-----------------|-----------------|-----------------|
D|--9-9-9-9-9-9-9-9-|-9-9-9-9-9-9-9-9-|-9-9-9-9-9-9-9-9-|-9-9-9-9-9-9-9-9-|
A|--9-9-9-9-9-9-9-9-|-7-7-7-7-7-7-7-7-|-6-6-6-6-6-6-6-6-|-x-x-x-x-x-x-x-x-|
E|------------------|-----------------|-----------------|-9-9-9-9-9-9-9-9-|

e|------------------|-----------------|-----------------|-----------------|
B|------------------|-----------------|-----------------|-----------------|
G|------------------|-----------------|-----------------|-----------------|
D|--9-9-9-9-9-9-9-9-|-9-9-9-9-9-9-9-9-|-9-9-9-9-9-9-9-9-|-9-9-9-9-9-9-9-9-|
A|--9-9-9-9-9-9-9-9-|-7-7-7-7-7-7-7-7-|-6-6-6-6-6-6-6-6-|-x-x-x-x-x-x-x-x-|
E|------------------|-----------------|-----------------|-9-9-9-9-9-9-9-9-|

e|------------------|-----------------|-----------------|-----------------|
B|------------------|-----------------|-----------------|-----------------|
G|------------------|-----------------|-----------------|-----------------|
D|--9-9-9-9-9-9-9-9-|-9-9-9-9-9-9-9-9-|-9-9-9-9-9-9-9-9-|-9-9-9-9-9-9-9-9-|
A|--9-9-9-9-9-9-9-9-|-7-7-7-7-7-7-7-7-|-6-6-6-6-6-6-6-6-|-x-x-x-x-x-x-x-x-|
E|------------------|-----------------|-----------------|-9-9-9-9-9-9-9-9-|

e|------------------|-----------------|-----------------|-----------------|
B|------------------|-----------------|-----------------|-----------------|
G|------------------|-----------------|-----------------|-----------------|
D|--9-9-9-9-9-9-9-9-|-9-9-9-9-9-9-9-9-|-9-9-9-9-9-9-9-9-|-9-9-9-9-9-9-9-9-|
A|--9-9-9-9-9-9-9-9-|-7-7-7-7-7-7-7-7-|-6-6-6-6-6-6-6-6-|-x-x-x-x-x-x-x-x-|
E|------------------|-----------------|-----------------|-9-9-9-9-9-9-9-9-|

e|------------------|-----------------|-----------------|-----------------|
B|------------------|-----------------|-----------------|-----------------|
G|------------------|-----------------|-----------------|-----------------|
D|--9-9-9-9-9-9-9-9-|-9-9-9-9-9-9-9-9-|-9-9-9-9-9-9-9-9-|-9-9-9-9-9-9-9-9-|
A|--9-9-9-9-9-9-9-9-|-7-7-7-7-7-7-7-7-|-6-6-6-6-6-6-6-6-|-x-x-x-x-x-x-x-x-|
E|------------------|-----------------|-----------------|-9-9-9-9-9-9-9-9-|

e|------------------|-----------------|-----------------|-----------------|
B|------------------|-----------------|-----------------|-----------------|
G|------------------|-----------------|-----------------|-----------------|
D|--9-9-9-9-9-9-9-9-|-9-9-9-9-9-9-9-9-|-9-9-9-9-9-9-9-9-|-9-9-9-9-9-9-9-9-|
A|--9-9-9-9-9-9-9-9-|-7-7-7-7-7-7-7-7-|-6-6-6-6-6-6-6-6-|-x-x-x-x-x-x-x-x-|
E|------------------|-----------------|-----------------|-9-9-9-9-9-9-9-9-|

[Final Chorus]
e|------------------|---------------|------------------|-------------------|
B|------------------|---------------|------------------|-------------------|
G|------------------|---------------|------------------|-------------------|
D|-9-(9)(9)(9)(9)(9)|-8-(8)(8)(8)(8)|-6-(6)(6)(6)(6)(6)|-8-(8)(8)(8)(8)(8)-|
A|-9-(9)(9)(9)(9)(9)|-9-(9)(9)(9)(9)|-6-(6)(6)(6)(6)(6)|-9-(9)(9)(9)(9)(9)-|
E|-7-(7)(7)(7)(7)(7)|-6-(6)(6)(6)(6)|-4-(4)(4)(4)(4)(4)|-6-(6)(6)(6)(6)(6)-|

e|------------------|---------------|------------------|-------------------|
B|------------------|---------------|------------------|-------------------|
G|------------------|---------------|------------------|-------------------|
D|-9-(9)(9)(9)(9)(9)|-8-(8)(8)(8)(8)|-6-(6)(6)(6)(6)(6)|-8-(8)(8)(8)(8)(8)-|
A|-9-(9)(9)(9)(9)(9)|-9-(9)(9)(9)(9)|-6-(6)(6)(6)(6)(6)|-9-(9)(9)(9)(9)(9)-|
E|-7-(7)(7)(7)(7)(7)|-6-(6)(6)(6)(6)|-4-(4)(4)(4)(4)(4)|-6-(6)(6)(6)(6)(6)-|

e|------------------|---------------|------------------|-------------------|
B|------------------|---------------|------------------|-------------------|
G|------------------|---------------|------------------|-------------------|
D|-9-(9)(9)(9)(9)(9)|-8-(8)(8)(8)(8)|-6-(6)(6)(6)(6)(6)|-8-(8)(8)(8)(8)(8)-|
A|-9-(9)(9)(9)(9)(9)|-9-(9)(9)(9)(9)|-6-(6)(6)(6)(6)(6)|-9-(9)(9)(9)(9)(9)-|
E|-7-(7)(7)(7)(7)(7)|-6-(6)(6)(6)(6)|-4-(4)(4)(4)(4)(4)|-6-(6)(6)(6)(6)(6)-|

e|------------------|---------------|------------------|-------------------|
B|------------------|---------------|------------------|-------------------|
G|------------------|---------------|------------------|-------------------|
D|-9-(9)(9)(9)(9)(9)|-8-(8)(8)(8)(8)|-6-(6)(6)(6)(6)(6)|-8-(8)(8)(8)(8)(8)-|
A|-9-(9)(9)(9)(9)(9)|-9-(9)(9)(9)(9)|-6-(6)(6)(6)(6)(6)|-9-(9)(9)(9)(9)(9)-|
E|-7-(7)(7)(7)(7)(7)|-6-(6)(6)(6)(6)|-4-(4)(4)(4)(4)(4)|-6-(6)(6)(6)(6)(6)-|

[End On]
E|-----|
B|-----|
G|-----|
D|--9--|
A|--9--|
E|--7--|

[Intro] Fades in, with heavy delay.
e|------------------------|-------------------------|
B|------------------------|-------------------------|
G|-------11---------9---8-|-------11---------9---8--|
D|--9-9-----9-8-8---------|--9-9------9-8-8---------| x A lot
A|------------------------|-------------------------|
E|------------------------|-------------------------|
 PM . .  .  . . .   .   .    . .   .  . . .  .   .

[Pre-Verse]
e|------------------|---------------|------------------|-------------------|
B|------------------|---------------|------------------|-------------------|
G|------------------|-9-(9)(9)(9)(9)|------------------|-------------------|
D|-6-(6)(6)(6)(6)(6)|-9-(9)(9)(9)(9)|-9-(9)(9)(9)(9)(9)|-4-(4)(4)(4)(4)(4)-|
A|-6-(6)(6)(6)(6)(6)|-7-(7)(7)(7)(7)|-9-(9)(9)(9)(9)(9)|-4-(4)(4)(4)(4)(4)-|
E|-4-(4)(4)(4)(4)(4)|---------------|-7-(7)(7)(7)(7)(7)|-2-(2)(2)(2)(2)(2)-|

e|------------------|---------------|------------------|-------------------|
B|------------------|---------------|------------------|-------------------|
G|------------------|-9-(9)(9)(9)(9)|------------------|-------------------|
D|-6-(6)(6)(6)(6)(6)|-9-(9)(9)(9)(9)|-9-(9)(9)(9)(9)(9)|-4-(4)(4)(4)(4)(4)-|
A|-6-(6)(6)(6)(6)(6)|-7-(7)(7)(7)(7)|-9-(9)(9)(9)(9)(9)|-4-(4)(4)(4)(4)(4)-|
E|-4-(4)(4)(4)(4)(4)|---------------|-7-(7)(7)(7)(7)(7)|-2-(2)(2)(2)(2)(2)-|

e|------------------|---------------|------------------|-------------------|
B|------------------|---------------|------------------|-------------------|
G|------------------|-9-(9)(9)(9)(9)|------------------|-------------------|
D|-6-(6)(6)(6)(6)(6)|-9-(9)(9)(9)(9)|-9-(9)(9)(9)(9)(9)|-4-(4)(4)(4)(4)(4)-|
A|-6-(6)(6)(6)(6)(6)|-7-(7)(7)(7)(7)|-9-(9)(9)(9)(9)(9)|-4-(4)(4)(4)(4)(4)-|
E|-4-(4)(4)(4)(4)(4)|---------------|-7-(7)(7)(7)(7)(7)|-2-(2)(2)(2)(2)(2)-|

e|------------------|---------------|------------------|-------------------|
B|------------------|---------------|------------------|-------------------|
G|------------------|-9-(9)(9)(9)(9)|------------------|-------------------|
D|-6-(6)(6)(6)(6)(6)|-9-(9)(9)(9)(9)|-9-(9)(9)(9)(9)(9)|-4-(4)(4)(4)(4)(4)-|
A|-6-(6)(6)(6)(6)(6)|-7-(7)(7)(7)(7)|-9-(9)(9)(9)(9)(9)|-4-(4)(4)(4)(4)(4)-|
E|-4-(4)(4)(4)(4)(4)|---------------|-7-(7)(7)(7)(7)(7)|-2-(2)(2)(2)(2)(2)-|

[Verse]
e|------------------|---------------|------------------|-------------------|
B|------------------|---------------|------------------|-------------------|
G|------------------|-9-(9)(9)(9)(9)|------------------|-------------------|
D|-6-(6)(6)(6)(6)(6)|-9-(9)(9)(9)(9)|-9-(9)(9)(9)(9)(9)|-4-(4)(4)(4)(4)(4)-|
A|-6-(6)(6)(6)(6)(6)|-7-(7)(7)(7)(7)|-9-(9)(9)(9)(9)(9)|-4-(4)(4)(4)(4)(4)-|
E|-4-(4)(4)(4)(4)(4)|---------------|-7-(7)(7)(7)(7)(7)|-2-(2)(2)(2)(2)(2)-|

e|------------------|---------------|------------------|-------------------|
B|------------------|---------------|------------------|-------------------|
G|------------------|-9-(9)(9)(9)(9)|------------------|-------------------|
D|-6-(6)(6)(6)(6)(6)|-9-(9)(9)(9)(9)|-9-(9)(9)(9)(9)(9)|-4-(4)(4)(4)(4)(4)-|
A|-6-(6)(6)(6)(6)(6)|-7-(7)(7)(7)(7)|-9-(9)(9)(9)(9)(9)|-4-(4)(4)(4)(4)(4)-|
E|-4-(4)(4)(4)(4)(4)|---------------|-7-(7)(7)(7)(7)(7)|-2-(2)(2)(2)(2)(2)-|

e|------------------|---------------|------------------|-------------------|
B|------------------|---------------|------------------|-------------------|
G|------------------|-9-(9)(9)(9)(9)|------------------|-------------------|
D|-6-(6)(6)(6)(6)(6)|-9-(9)(9)(9)(9)|-9-(9)(9)(9)(9)(9)|-4-(4)(4)(4)(4)(4)-|
A|-6-(6)(6)(6)(6)(6)|-7-(7)(7)(7)(7)|-9-(9)(9)(9)(9)(9)|-4-(4)(4)(4)(4)(4)-|
E|-4-(4)(4)(4)(4)(4)|---------------|-7-(7)(7)(7)(7)(7)|-2-(2)(2)(2)(2)(2)-|

e|------------------|---------------|------------------|-------------------|
B|------------------|---------------|------------------|-------------------|
G|------------------|-9-(9)(9)(9)(9)|------------------|-------------------|
D|-6-(6)(6)(6)(6)(6)|-9-(9)(9)(9)(9)|-9-(9)(9)(9)(9)(9)|-4-(4)(4)(4)(4)(4)-|
A|-6-(6)(6)(6)(6)(6)|-7-(7)(7)(7)(7)|-9-(9)(9)(9)(9)(9)|-4-(4)(4)(4)(4)(4)-|
E|-4-(4)(4)(4)(4)(4)|---------------|-7-(7)(7)(7)(7)(7)|-2-(2)(2)(2)(2)(2)-|

[Chorus]
E|--19-----19-|
B|------19----|
G|------------|
D|------------| Play 4 times
A|------------|
E|------------|

[Post Chorus]
e|------------------|---------------|------------------|-------------------|
B|------------------|---------------|------------------|-------------------|
G|------------------|-9-(9)(9)(9)(9)|------------------|-------------------|
D|-6-(6)(6)(6)(6)(6)|-9-(9)(9)(9)(9)|-9-(9)(9)(9)(9)(9)|-4-(4)(4)(4)(4)(4)-|
A|-6-(6)(6)(6)(6)(6)|-7-(7)(7)(7)(7)|-9-(9)(9)(9)(9)(9)|-4-(4)(4)(4)(4)(4)-|
E|-4-(4)(4)(4)(4)(4)|---------------|-7-(7)(7)(7)(7)(7)|-2-(2)(2)(2)(2)(2)-|

e|------------------|---------------|------------------|-------------------|
B|------------------|---------------|------------------|-------------------|
G|------------------|-9-(9)(9)(9)(9)|------------------|-------------------|
D|-6-(6)(6)(6)(6)(6)|-9-(9)(9)(9)(9)|-9-(9)(9)(9)(9)(9)|-4-(4)(4)(4)(4)(4)-|
A|-6-(6)(6)(6)(6)(6)|-7-(7)(7)(7)(7)|-9-(9)(9)(9)(9)(9)|-4-(4)(4)(4)(4)(4)-|
E|-4-(4)(4)(4)(4)(4)|---------------|-7-(7)(7)(7)(7)(7)|-2-(2)(2)(2)(2)(2)-|

[Verse]
e|------------------|---------------|------------------|-------------------|
B|------------------|---------------|------------------|-------------------|
G|------------------|-9-(9)(9)(9)(9)|------------------|-------------------|
D|-6-(6)(6)(6)(6)(6)|-9-(9)(9)(9)(9)|-9-(9)(9)(9)(9)(9)|-4-(4)(4)(4)(4)(4)-|
A|-6-(6)(6)(6)(6)(6)|-7-(7)(7)(7)(7)|-9-(9)(9)(9)(9)(9)|-4-(4)(4)(4)(4)(4)-|
E|-4-(4)(4)(4)(4)(4)|---------------|-7-(7)(7)(7)(7)(7)|-2-(2)(2)(2)(2)(2)-|

e|------------------|---------------|------------------|-------------------|
B|------------------|---------------|------------------|-------------------|
G|------------------|-9-(9)(9)(9)(9)|------------------|-------------------|
D|-6-(6)(6)(6)(6)(6)|-9-(9)(9)(9)(9)|-9-(9)(9)(9)(9)(9)|-4-(4)(4)(4)(4)(4)-|
A|-6-(6)(6)(6)(6)(6)|-7-(7)(7)(7)(7)|-9-(9)(9)(9)(9)(9)|-4-(4)(4)(4)(4)(4)-|
E|-4-(4)(4)(4)(4)(4)|---------------|-7-(7)(7)(7)(7)(7)|-2-(2)(2)(2)(2)(2)-|

e|------------------|---------------|------------------|-------------------|
B|------------------|---------------|------------------|-------------------|
G|------------------|-9-(9)(9)(9)(9)|------------------|-------------------|
D|-6-(6)(6)(6)(6)(6)|-9-(9)(9)(9)(9)|-9-(9)(9)(9)(9)(9)|-4-(4)(4)(4)(4)(4)-|
A|-6-(6)(6)(6)(6)(6)|-7-(7)(7)(7)(7)|-9-(9)(9)(9)(9)(9)|-4-(4)(4)(4)(4)(4)-|
E|-4-(4)(4)(4)(4)(4)|---------------|-7-(7)(7)(7)(7)(7)|-2-(2)(2)(2)(2)(2)-|

e|------------------|---------------|------------------|-------------------|
B|------------------|---------------|------------------|-------------------|
G|------------------|-9-(9)(9)(9)(9)|------------------|-------------------|
D|-6-(6)(6)(6)(6)(6)|-9-(9)(9)(9)(9)|-9-(9)(9)(9)(9)(9)|-4-(4)(4)(4)(4)(4)-|
A|-6-(6)(6)(6)(6)(6)|-7-(7)(7)(7)(7)|-9-(9)(9)(9)(9)(9)|-4-(4)(4)(4)(4)(4)-|
E|-4-(4)(4)(4)(4)(4)|---------------|-7-(7)(7)(7)(7)(7)|-2-(2)(2)(2)(2)(2)-|

[Chorus]
E|--19-----19-|
B|------19----|
G|------------| Play 12 times
D|------------|
A|------------|
E|------------|

[Final Chorus]
e|------------------|---------------|------------------|-------------------|
B|------------------|---------------|------------------|-------------------|
G|------------------|---------------|------------------|-------------------|
D|-9-(9)(9)(9)(9)(9)|-8-(8)(8)(8)(8)|-6-(6)(6)(6)(6)(6)|-8-(8)(8)(8)(8)(8)-|
A|-9-(9)(9)(9)(9)(9)|-9-(9)(9)(9)(9)|-6-(6)(6)(6)(6)(6)|-9-(9)(9)(9)(9)(9)-|
E|-7-(7)(7)(7)(7)(7)|-6-(6)(6)(6)(6)|-4-(4)(4)(4)(4)(4)|-6-(6)(6)(6)(6)(6)-|

e|------------------|---------------|------------------|-------------------|
B|------------------|---------------|------------------|-------------------|
G|------------------|---------------|------------------|-------------------|
D|-9-(9)(9)(9)(9)(9)|-8-(8)(8)(8)(8)|-6-(6)(6)(6)(6)(6)|-8-(8)(8)(8)(8)(8)-|
A|-9-(9)(9)(9)(9)(9)|-9-(9)(9)(9)(9)|-6-(6)(6)(6)(6)(6)|-9-(9)(9)(9)(9)(9)-|
E|-7-(7)(7)(7)(7)(7)|-6-(6)(6)(6)(6)|-4-(4)(4)(4)(4)(4)|-6-(6)(6)(6)(6)(6)-|

e|------------------|---------------|------------------|-------------------|
B|------------------|---------------|------------------|-------------------|
G|------------------|---------------|------------------|-------------------|
D|-9-(9)(9)(9)(9)(9)|-8-(8)(8)(8)(8)|-6-(6)(6)(6)(6)(6)|-8-(8)(8)(8)(8)(8)-|
A|-9-(9)(9)(9)(9)(9)|-9-(9)(9)(9)(9)|-6-(6)(6)(6)(6)(6)|-9-(9)(9)(9)(9)(9)-|
E|-7-(7)(7)(7)(7)(7)|-6-(6)(6)(6)(6)|-4-(4)(4)(4)(4)(4)|-6-(6)(6)(6)(6)(6)-|

e|------------------|---------------|------------------|-------------------|
B|------------------|---------------|------------------|-------------------|
G|------------------|---------------|------------------|-------------------|
D|-9-(9)(9)(9)(9)(9)|-8-(8)(8)(8)(8)|-6-(6)(6)(6)(6)(6)|-8-(8)(8)(8)(8)(8)-|
A|-9-(9)(9)(9)(9)(9)|-9-(9)(9)(9)(9)|-6-(6)(6)(6)(6)(6)|-9-(9)(9)(9)(9)(9)-|
E|-7-(7)(7)(7)(7)(7)|-6-(6)(6)(6)(6)|-4-(4)(4)(4)(4)(4)|-6-(6)(6)(6)(6)(6)-|

[End On]
E|-----|
B|-----|
G|-----|
D|--9--|
A|--9--|
E|--7--|

[Outro]
e|------------------------|----------------------|
B|------------------------|----------------------|
G|-------11---------9---8-|--------11--------9-8-|
D|--9-9-----9-8-8---------|---9--9----9-8-8------| x A lot
A|------------------------|----------------------|
E|------------------------|----------------------|
 PM . . .   . . .  .   .      .  .  . . . .  . .

****************************

| /  slide up
| \  slide down
| h  hammer-on
| p  pull-off
| ~  vibrato
| +  harmonic
| x  Mute note

****************************

            
            
Suggest correction
Creating personal tab
Creating personal tab
You can edit any tab online and save it as your Personal.

You can edit, replace or remove any tab part or add personal notes – all changes will be seen only by you.

Personal tabs can be accessed anytime from any device, even offline.
Learn more »
comments
print report bad tab
114 comments total. Showing first comments. show 1 bad comment
0 reply
manoxanide_gas 10 Feb 19, 2006 11:39 AM

awesome tab!!!!!! Can't wait for angels and airwaves album comes out its gonna be the mother****ing shit neway nice ****in tab **** u

+2 reply
the_deviant 20 Feb 20, 2006 08:34 AM

Wicked tab thanks!!

guest
You may want to rate the tab now too:
select rating
Wanna post a correction for this tab? Suggest correction