Oops, an error
Loading. Please wait.
We have an official Everythings Magic tab made by UG professional guitarists. Check out the tab »
×
8,560 views 3 this week
2 commentsread comments
1 2 3 4 5
x 3
add to favorites
×
Save as Personal and add changes to this tab that will be seen only by you. Learn more ›
×
You can save this tab as Personal to edit and correct it or add notes. All changes will be seen only by you. Learn more »
launch autoscroll
font size
0
reset
guitar tuner
backing track
0:00
0:00
edit
Autoscroll
slow
fast
+/-
esc
set tempo
stop
Difficulty
----------------------------------------------------------------------------
			     Everything's Magic - Angels And Airwaves
----------------------------------------------------------------------------

Tabbed by: miles
Email: mileswilson@hotmail.com
Tuning: Standard

this is my first tab blah blah blah. its pretty fun and easy to play. hope you like. in 
chorus, it obviously sounds a whole better if you work out the strumming pattern, i just 
be bothered to tab it... if you have any improvements, feel free to email me.


Verse/s:

0:26 (and do you ever feel like...)

G|--------------------------------------------------------------------------|
D|--------------------------------------------------------------------------|
A|--------------------------------------------------------------------------|
E|----1--1--1-------------------------------1--1--1-------------------------|


0:35 (i can say i have...)

G|--------------------------------------------------------------------------|
D|--------------------------------------------------------------------------|
A|--5/3--3--3--3/7--7----3--3--3----------5/3--3--3--3/5--5------3--3--3----|
E|--------------------------------------------------------------------------|


0:43 (and do you ever feel...)

G|--------------------------------------------------------------------------|
D|--------------------------------------------------------------------------|
A|--------------------------------------------------------------------------|
E|--3-1--1--1-----------------------------3-1--1--1-------------------------|

0:52 (i can say i have...)

G|--------------------------------------------------------------------------|
D|--------------------------------------------------------------------------|
A|--5/3--3--3--3/7--7----3--3--3----------5/3--3--3--3/5--5------3--3--3----|
E|--------------------------------------------------------------------------|


Chorus:

1:01
G|--------------------------------------------------------------------------|
D|--------------------------------------------------------------------------|
A|----3-(x16)---------------------------------------------------------------|
E|-------------------5-(x16)--------3-(x16)--------1-(x16)------------------|


G|---------------------------------------------------------------------------|
D|---------------------------------------------------------------------------|
A|---------------------------------------------------------------------------|
E|----5-(x16)--------3-(x16)--------5-(x16)--------3-(x8)----------1-(x8)--3-|


*note* the chorus that leads into the bridge ends:

G|--------------------------------------------------------------------------|
D|--------------------------------------------------------------------------|
A|--------------------------------------------------------------------------|
E|----5-(x16)--------3-(x16)--------5-(x16)--------3-(x16)------------------|


Bridge:

*double time strumming (ie 32 strokes rather than 16) sounds better*

2:53
G|--------------------------------------------------------------------------|
D|--------------------------------------------------------------------------|
A|----3-(x16)---------------------------------------------------------------|
E|-------------------5-(x16)--------3-(x16)--------1-(x16)------------------|


| /  slide up
| \  slide down
| h  hammer-on
| p  pull-off
| ~  vibrato
| +  harmonic
| x  Mute note
============================================================================

            
            
Suggest correction
Creating personal tab
Creating personal tab
You can edit any tab online and save it as your Personal.

You can edit, replace or remove any tab part or add personal notes – all changes will be seen only by you.

Personal tabs can be accessed anytime from any device, even offline.
Learn more »
Give kudos to tab author, rate the tab!
1 2 3 4 5
comments
print report bad tab
2 comments total.
-1 reply
Captain Insano 223 Nov 12, 2007 07:39 AM

It think the verse is more like this

G-----------------
D-----------------
A 3-3-3-3/5h7-3-3-3
E-----------------

-1 reply
Captain Insano 223 Nov 12, 2007 07:39 AM

It think the verse is more like this

G-----------------
D-----------------
A 3-3-3-3/5h7-3-3-3
E-----------------

guest
Wanna post a correction for this tab? Suggest correction