Oops, an error
Loading. Please wait.
We have an official Everythings Magic tab made by UG professional guitarists. Check out the tab »
×

Everythings Magic tab

56,579 views 78 this week
2 commentsread comments
1 2 3 4 5
x 20
add to favorites
×
Save as Personal and add changes to this tab that will be seen only by you. Learn more ›
×
You can save this tab as Personal to edit and correct it or add notes. All changes will be seen only by you. Learn more »
launch autoscroll
font size
0
reset
how to read this tab
guitar tuner
backing track
0:00
0:00
edit
Autoscroll
slow
fast
+/-
esc
set tempo
stop
Author
Hello peoples.
As you can see this is my first tab.
I'm pretty sure this is correct, but corrections would be appreciated.
Enjoy.

Angels And Airwaves
Everything's Magic
I-Empire

[Intro]
E|------------------------------------------------------------------------||
B|-8-------6-------5-------6-------6--8------6-------5-------6-------6----||
G|---5---5---5---5---5---5---5---5-----5---5---5---5---5---5---5---5------||
D|-----7-------7-------7-------7---------7-------7-------7-------7--------||
A|------------------------------------------------------------------------||
E|------------------------------------------------------------------------||

E|------------------------------------------------------------------------||
B|-8-------6-------5-------6-------6--8-------6-------5-------6------6----||
G|---5---5---5---5---5---5---5---5-----5---5---5---5---5---5---5---5------||
D|-----5-------5-------5-------5---------5-------5-------5-------5--------||
A|------------------------------------------------------------------------||
E|------------------------------------------------------------------------||

[Verse 1](x2)
E|------------------------------------------------------------------------||
B|-8-----8--6-----6--5-------6-------6------------------------------------||
G|---5--------5--------5---5---5---5-----(x2)-----------------------------||
D|-----7--------7--------7-------7----------------------------------------||
A|------------------------------------------------------------------------||
E|------------------------------------------------------------------------||

E|------------------------------------------------------------------------||
B|-8-----8--6-----6--5-------6-------6------------------------------------||
G|---5--------5--------5---5---5---5-----(x2)-----------------------------||
D|-----5--------5--------5-------5----------------------------------------||
A|------------------------------------------------------------------------||
E|------------------------------------------------------------------------||

[Chorus]
E|-------------------------------------|| E|------------------------------||
B|-----13--x13--x13--1313--x13--xx-----|| B|-----------13~----------------||
G|-----12--x12--x12--1212--x10--xx(x16)|| G|-(end on)--12~----------------||
D|-----10--x10--x10--1010--x10--xx-----|| D|-----------10~----------------||
A|-------------------------------------|| A|------------------------------||
E|-------------------------------------|| E|------------------------------||

[Verse 2](x2)
E|------------------------------------------------------------------------||
B|-8-----8--6-----6--5-------6-------6------------------------------------||
G|---5--------5--------5---5---5---5-----(x2)-----------------------------||
D|-----7--------7--------7-------7----------------------------------------||
A|------------------------------------------------------------------------||
E|------------------------------------------------------------------------||

E|------------------------------------------------------------------------||
B|-8-----8--6-----6--5-------6-------6------------------------------------||
G|---5--------5--------5---5---5---5-----(x2)-----------------------------||
D|-----5--------5--------5-------5----------------------------------------||
A|------------------------------------------------------------------------||
E|------------------------------------------------------------------------||

[Chorus]
E|-------------------------------------|| E|------------------------------||
B|-----13--x13--x13--1313--x13--xx-----|| B|-----------13~----------------||
G|-----12--x12--x12--1212--x10--xx(x16)|| G|-(end on)--12~----------------||
D|-----10--x10--x10--1010--x10--xx-----|| D|-----------10~----------------||
A|-------------------------------------|| A|------------------------------||
E|-------------------------------------|| E|------------------------------||

[Bridge]
(Hold the final chord of the chorus)

[Final Chorus]
E|-------------------------------------|| E|------------------------------||
B|-----13--x13--x13--1313--x13--xx-----|| B|-----------13~----------------||
G|-----12--x12--x12--1212--x10--xx(x16)|| G|-(end on)--12~----------------||
D|-----10--x10--x10--1010--x10--xx-----|| D|-----------10~----------------||
A|-------------------------------------|| A|------------------------------||
E|-------------------------------------|| E|------------------------------||

Lyrics:
And do you ever feel like you're alone?
And do you ever wish you could be unknown?
I could say that I have..
I could say that I have..
And do you ever feel things here aren't right?
And do you ever feel the time slip by?
I can say that I have..
And I can say that I have..

So hear this please
And watch as your heart speeds up endlessly
And look for the stars as the sun goes down
Each breath that you take has a thunderous sound
Everything, everything's magic
Just sit back and hold on, but hold on tight
Prepare for the best and the fastest ride
And reach out your hand, and I'll make you mine
Everything, everything's magic

And do you ever lay awake at night?
And do you ever tell yourself don't try?
Don't try to let yourself down
Don't try to let yourself down
And do you ever see yourself in love?
And do you ever take a chance, my love?
Because you know that I will..
Because you know that I will..

So hear this please
And watch as your hearts speeds up endlessly
And look for the stars as the sun goes down
Each breath that you take has a thunderous sound
Everything, everything's magic
Just sit back and hold on, but hold on tight
Prepare for the best and the fastest ride
And reach out your hand, and I'll make you mine
Everything, everything's magic
Everything, everything's magic

So hear this please
And watch as your hearts speeds up endlessly
And look for the stars as the sun goes down
Each breath that you take has a thunderous sound
Everything, everything's magic
Just sit back and hold on, but hold on tight
Prepare for the best and the fastest ride
And reach out your hand, and I'll make you mine
Everything, everything's magic

            
            
Suggest correction
Creating personal tab
Creating personal tab
You can edit any tab online and save it as your Personal.

You can edit, replace or remove any tab part or add personal notes – all changes will be seen only by you.

Personal tabs can be accessed anytime from any device, even offline.
Learn more »
comments
print report bad tab
2 comments total.
+1 reply
AmateurAct 10 Aug 12, 2010 01:13 PM

By far the most correct tab. If you clarify your rhythm more in the verse and which strings are getting used when in the chorus, you will be dead on. Thanks man!

+1 reply
yeahmate 10 May 13, 2017 09:13 AM

Amazing tab thanks man :)

guest
You may want to rate the tab now too:
select rating
Wanna post a correction for this tab? Suggest correction