Oops, an error
Loading. Please wait.

Good Day tab

version 5
version 5

Whole song

Interactive

4,284 views 1 this week
no commentswrite comment
1 2 3 4 5
3 more votes to show rating
add to favorites
×
Save as Personal and add changes to this tab that will be seen only by you. Learn more ›
×
You can save this tab as Personal to edit and correct it or add notes. All changes will be seen only by you. Learn more »
launch autoscroll
font size
0
reset
how to read this tab
guitar tuner
edit
Autoscroll
slow
fast
+/-
esc
set tempo
stop
Author
So this song is an acoustic bonus track off the I Empire album. no one knows how to ply 
right so i'll show you.
Intro/verse:
( I should of turned back...)and( true love is something that comes easy...)
e|--------------------------------|
B|--------------------------------|
G|--------------------------------|
D|-4-4/12/7-7-7-7-6-6-6-6-4-4-4-4-|
A|-4-4/12/7-7-7-7-7-7-7-7-4-4-4-4-|
E|-0-2/10/5-5-5-5-4-4-4-4-2-2-2-2-|

Chorus:
( oh, i need you now....)
e|-----------------------------------------------------------------------|
B|-----------------------------------------------------------------------|
G|-----------------------------------------------------------------------|
D|-4-4/6/7-7-7-7-7-7-7-7-6-6-6-6-6-6-6-6-4-4-4-4-4-4-4-4-6-6-6-6-6-6-6-6-|
A|-4-4/6/7-7-7-7-7-7-7-7-7-7-7-7-7-7-7-7-4-4-4-4-4-4-4-4-7-7-7-7-7-7-7-7-|
E|-0-2/4/5-5-5-5-5-5-5-5-4-4-4-4-4-4-4-4-2-2-2-2-2-2-2-2-4-4-4-4-4-4-4-4-|

Continued:
( this room is safe and sound....)
e|-----------------------------------------------------------------|
B|-----------------------------------------------------------------|
G|-----------------------------------------------------------------|
D|-7-7-7-7-7-7-7-7-6-6-6-6-6-6-6-6-4-4-4-4-4-4-4-4-6-6-6-6-6-6-6-6-|
A|-7-7-7-7-7-7-7-7-7-7-7-7-7-7-7-7-4-4-4-4-4-4-4-4-7-7-7-7-7-7-7-7-|
E|-5-5-5-5-5-5-5-5-4-4-4-4-4-4-4-4-2-2-2-2-2-2-2-2-4-4-4-4-4-4-4-4-|

after the verse play this:

e|-----------------------|
B|-----------------------|
G|-----------------------|
D|-7-x-x-7-7-7-x-x-7-7-7-|
A|-7-x-x-7-7-7-x-x-7-7-7-|
E|-5-x-x-5-5-5-x-x-5-5-5-|

outro:
(heaiver strumming)
( I think i like today....)and( la da da da da dadada...)
e|-----------------------------------------------------------------|
B|-----------------------------------------------------------------|
G|-----------------------------------------------------------------|
D|-7-7-7-7-7-7-7-7-6-6-6-6-6-6-6-6-4-4-4-4-4-4-4-4-6-6-6-6-6-6-6-6-|
A|-7-7-7-7-7-7-7-7-7-7-7-7-7-7-7-7-4-4-4-4-4-4-4-4-7-7-7-7-7-7-7-7-|
E|-5-5-5-5-5-5-5-5-4-4-4-4-4-4-4-4-2-2-2-2-2-2-2-2-4-4-4-4-4-4-4-4-|

end on:

e|---|
B|---|
G|---|
D|-7-|
A|-7-|
E|-5-|

Order:

intro/verse x2 (only ist guitar)
intro/verse x6 (both Guitars)
chorus x1 (1st guitar)
play the thing after the verse x1 (1st guitar)
intro/verse x 6 (both guitars)
chorus x1 (only 1st guitar)
outro x5 (both Guitars)

you can watch this video on youtube at the loser kids grand opening.
other than that this is exactly how they play it.
email me for any other angels and airwaves acoustic tabs.
-matt

            
            
Suggest correction
Creating personal tab
Creating personal tab
You can edit any tab online and save it as your Personal.

You can edit, replace or remove any tab part or add personal notes – all changes will be seen only by you.

Personal tabs can be accessed anytime from any device, even offline.
Learn more »
Give kudos to tab author, rate the tab!
1 2 3 4 5
comments
print report bad tab
guest
You may want to rate the tab now too:
select rating
Wanna post a correction for this tab? Suggest correction