Oops, an error
Loading. Please wait.

Rite Of Spring tab

version 3
version 3

Whole song

Interactive

4,711 views 1 this week
1 commentread comment
1 2 3 4 5
x 3
add to favorites
×
Save as Personal and add changes to this tab that will be seen only by you. Learn more ›
×
You can save this tab as Personal to edit and correct it or add notes. All changes will be seen only by you. Learn more »
launch autoscroll
font size
0
reset
how to read this tab
guitar tuner
edit
Autoscroll
slow
fast
+/-
esc
set tempo
stop
Key:
(>>) Fade Out

(Intro)
|-------------------|
|-------------------|
|-------4---6p4-4---|
|-------------------|
|---7-7---7---------|
|-------------------|

|-------------------|
|-------------------|
|------6-4-4--------|
|------------[x15]--|
|---7---------------|
|-------------------|

(Verse x4)
|-------------------------------------------------------------------|
|-------------------------------------------------------------------|
|-------------------------------------------------------------------|
|-----9-----9---9-----9-----9---9-----9-----9---9-----9-----9---9---|
|-7-7---7-7---7---7-7---7-7---7---7-7---7-7---7---7-7---7-7---7-----|
|-------------------------------------------------------------------|

|-------------------------------------------------------------------|
|-------------------------------------------------------------------|
|-------------------------------------------------------------------|
|-----9-----9---9-----9-----9---9-----9-----9---9-----9-----9---9---|
|-0-0---0-0---0---0-0---0-0---0---0-0---0-0---0---0-0---0-0---0-----|
|-------------------------------------------------------------------|

(Chorus)(Guitar 1)
|--------------------------------|
|--------------------------------|
|--------------------------------|
|--------------------------------|(x3)
|---11-[x8]---9-[x8]---7-[x16]---|
|---9---------7--------5---------|

|--------------------------------|
|--------------------------------|
|--------------------------------|
|--------------------------------|(x1)
|---11-[x8]---9-[x8]---7->>------|
|---9---------7--------5->>------|

(Chorus)(Guitar 2)
|------------------------------------------------------------------------|
|------------------------------------------------------------------------|
|------------------------------------------------------------------------|
|------------------------------------------------------------------------|(x4)
|---9-9-9-9-9-9-9-8-9-9-9-9-9-9-9-8-9-9-9-9-9-9-9-9-9-9-9-9-11-11-11-9---|
|------------------------------------------------------------------------|

(Solo)
|-------------------------------------------------------------------------------------------------|
|-------------------------------------------------------------------------------------------------|
|-------------------------------------------------------------------------------------------------|
|---1---------------------1-----------------1-----2---------------------2-------------------------|
|-----2-2-4-2-4-4-2-4-2-----2-2-4-2-4-4-2-4---2-----2-2-4-2-4-4-2-4-2-----2-2-4-2-4-4-2-4-2-1-4---|
|-------------------------------------------------------------------------------------------------|

|-------------------------------------------------------------------------------------------------|
|-------------------------------------------------------------------------------------------------|
|-------------------------------------------------------------------------------------------------|
|---1---------------------1-----------------1-----2---------------------2-------------------------|
|-----2-2-4-2-4-4-2-4-2-----2-2-4-2-4-4-2-4---2-----2-2-4-2-4-4-2-4-2-----2-2-4-2-4-4-2-4-2->>----|
|-------------------------------------------------------------------------------------------------|

Verse (x1)

Chorus (x1)

There's multiple instrumentals on this part, but to me it sounds like 2 guitars are 
a 2nd version of the solo which goes like this:

Guitar 1 (x2)
|-------------------------------------------------------------------------------------------------|
|-------------------------------------------------------------------------------------------------|
|-------------------------------------------------------------------------------------------------|
|---1---------------------1-----------------------2---------------------2-------------------------|
|-----2-2-4-2-4-4-2-4-2-----2-2-4-2-4-4-2-4-2-------2-2-4-2-4-4-2-4-2-----2-2-4-2-4-4-2-4-2-------|
|-------------------------------------------------------------------------------------------------|

Guitar 2 (x2)
|-----------------------------------------------------------------------|
|---9--------------------------------10---------------------------------|
|-----9-9-11-9-11-11-9-11-9---[x2]------9-9-11-9-11-11-9-11-9---[x2]----|
|-----------------------------------------------------------------------|
|-----------------------------------------------------------------------|
|-----------------------------------------------------------------------|

(Chorus v2)(Guitar 1)
|--------------------------------|
|--------------------------------|
|--------------------------------|
|--------------------------------|(x7)
|---11-[x8]---9-[x8]---7-[x16]---|
|---9---------7--------5---------|

|--------------------------------|
|--------------------------------|
|--------------------------------|
|--------------------------------|(x1)
|---11-[x8]---9-[x8]---7->>------|
|---9---------7--------5->>------|

(Chorus v2)(Guitar 2)

|------------------------------------------------------------------------|
|------------------------------------------------------------------------|
|------------------------------------------------------------------------|
|------------------------------------------------------------------------|(x8)
|---9-9-9-9-9-9-9-8-9-9-9-9-9-9-9-8-9-9-9-9-9-9-9-9-9-9-9-9-11-11-11-9---|
|------------------------------------------------------------------------|



Lyrics:

I was locked all day in the summer heat,
In a small brown house in suburban streets,
My skateboard and my shit guitar,
I dreamed all day that they would get me far,
My dad would ask me about my grades,
The ass hole sports that I never played,
And then I'd ask about the girls he'd date,
Behind our backs when mom would stay up late

It was then when I turned 16,
Got kicked out of school and so it seemed,
That things were closing in and ready to blow,
My dad moved out about that year or so,
It took an hour to start a punk rock band,
To offset my fucked up family land,
And as I helped my mom would start to cry,
I swore ourselves a better life

If I had a chance for another try,
I wouldn't change a thing,
Its made me all and who I am inside,
And if I could thank God that I am here and that I am alive,
And every day I wake I tell myself a little harmless lie,
The whole wide world is mine

The summer's gone the years have passed,
My friends have changed a few did last,
The smallest dreams got pushed aside,
The largest ones that changed my life,
And all I'd wish for has come and passed,
From rock'n'roll to love and cash,
It's all success if its what you need,
Do what you like and do it honestly

If I had a chance for another try,
I wouldn't change a thing,
Its made me all and who I am inside,
And if I could thank God that I am here and that I am alive,
And every day I wake I tell myself a little harmless lie,
The whole wide world is mine

Yo-oh-oh-oh
Yo-oh-oh
Yo-oh-oh-oh
Yo-oh-oh
Yo-oh-oh-oh
Yo-oh-oh
Yo-oh-oh-oh
Yo-oh-oh

If I had a chance for another try,
I wouldn't change a thing,
Its made me all and who I am inside,
And if I could thank God that I am here and that I am alive,
And every day I wake I tell myself a little harmless lie,
The whole wide world is mine

If I had a chance for another try,
I wouldn't change a thing,
Its made me all and who I am inside,
And if I could thank God that I am here and that I am alive,
And every day I wake I tell myself a little harmless lie,
The whole wide world is mine


This was my first tab, it's atleast 99% correct, assuming I made a couple mistakes here
there. Hope it helps :)

            
            
Suggest correction
Creating personal tab
Creating personal tab
You can edit any tab online and save it as your Personal.

You can edit, replace or remove any tab part or add personal notes – all changes will be seen only by you.

Personal tabs can be accessed anytime from any device, even offline.
Learn more »
Give kudos to tab author, rate the tab!
1 2 3 4 5
comments
print report bad tab
1 comment total.
0 reply
mr--wrigley 31 Feb 05, 2008 06:29 AM

its good, but you didn't put the right amount of notes in some places

guest
You may want to rate the tab now too:
select rating
Wanna post a correction for this tab? Suggest correction