Oops, an error
Loading. Please wait.

Secret Crowds bass

version 1
version 1

Whole song

Interactive

6,051 views 1 this week
1 commentread comment
1 2 3 4 5
x 5
add to favorites
×
Save as Personal and add changes to this tab that will be seen only by you. Learn more ›
×
You can save this tab as Personal to edit and correct it or add notes. All changes will be seen only by you. Learn more »
launch autoscroll
font size
0
reset
guitar tuner
edit
Autoscroll
slow
fast
+/-
esc
set tempo
stop
Difficulty
ive been trying to tab this song since it came out! and still im undecided
whether this is 100 percent right but give it a go :)

Intro: 0:27

(its 17 not 1 7)
G|---------------------------------------------------|
D|---------------------------------------------------|
A|------------1/17-17-17-17-17-17-17-17-17-17-17-17--|
E|---------------------------------------------------|

slide down from the 17 straight onto
G|-----------------------------------------------------------------------|
D|-----------------------------------------------------------------------|
A|-------------------------9/-5-5-555/4-444------------------------------|x7
E|------------------------------------------3----------------------------|

Verse 0:56 if i had my own world

G|-----------------------------------------------------------------------|
D|-----------------------------------------------------------------------|
A|--5~----4/7~----5/9/5~------4/10~---10h12--5---------------------------|
E|-----------------------------------------------------------------------|

1:21

G|-----------------------------------------------------------------------|
D|-----------------------------------------------------------------------|
A|--555555555555---7777777777--55555555555555h4/10101010101010101010h12--|
E|-----------------------------------------------------------------------|

1:34
G|-----------------------------------------------------------------------|
D|-----------------------------------------------------------------------|
A|--555555555555---7777777777--99999999999999h4/10101010101010101010/5---|
E|-----------------------------------------------------------------------|

Chorus 1:45

G|-----------------------------------------------------------------------|
D|-----------------------------------------------------------------------|
A|--555555555555555555555555--------------10101010101010101010-----------|x2
E|--------------------------555555555555---------------------------------|

G|-----------------------------------------------------------------------|
D|-----------------------------------------------------------------------|
A|--555555555555555555555555--7777777777--10101010101010101010-----------|
E|-----------------------------------------------------------------------|


G|-----------------------------------------------------------------------|
D|-----------------------------------------------------------------------|
A|--555555555555555555555555--------------10101010101010101010-----------|
E|--------------------------555555555555---------------------------------|


Pre verse

G|-----------------------------------------------------------------------|
D|-----------------------------------------------------------------------|
A|-------------------------9/-5-5-555/4-444------------------------------|x7
E|------------------------------------------3----------------------------|

Verse again

then chorus

then little bridge with no bass just tom singing and atom on drums then 

4:03

(its 17 not 1 7)
G|---------------------------------------------------|
D|---------------------------------------------------|
A|------------1/17-17-17-17-17-17-17-17-17-17-17-17--|
E|---------------------------------------------------|

then continue wid the chorus and finish on

G|---------------------------------------------------|
D|---------------------------------------------------|
A|------------5~~~~~~--------------------------------|
E|---------------------------------------------------|

            
            
Suggest correction
Creating personal tab
Creating personal tab
You can edit any tab online and save it as your Personal.

You can edit, replace or remove any tab part or add personal notes – all changes will be seen only by you.

Personal tabs can be accessed anytime from any device, even offline.
Learn more »
comments
print report bad tab
1 comment total.
+1 reply
minniza 10 Mar 25, 2008 01:27 PM

Nice tab=) though it was wrong sometimes it doesn't matter=)

guest
Wanna post a correction for this tab? Suggest correction