Oops, an error
Loading. Please wait.

Secret Crowds tab

version 2
version 2

Whole song

Interactive

Video

  • High quality, easy to follow video lesson.
44,424 views 9 this week
16 commentsread comments
1 2 3 4 5
x 15
add to favorites
×
Save as Personal and add changes to this tab that will be seen only by you. Learn more ›
×
You can save this tab as Personal to edit and correct it or add notes. All changes will be seen only by you. Learn more »
launch autoscroll
font size
0
reset
how to read this tab
guitar tuner
edit
Autoscroll
slow
fast
+/-
esc
set tempo
stop
Author
Artist: Angels And Airwaves
Song: Secret Crowds
Album: I-Empire

This is a awesome song by Angels And Airwaves.
I have tried to tab it, and here is how i like
to play it. If you have any comment send a e-mail
to plus44@visir.is or comment here at Ultimate-Guitar.
P.S. I'm from Iceland and are 14 yaers old so i'm 
not so good writing on English. 

Tabbed by: Atticus44
Email: plus44@visir.is



| /  slide up
| \  slide down
| ~  vibrato

Tuning: Standard

Guitar 1: 
Guitar 2:

			Intro: 			
			
	(0:31-0:0:56)	Guitar 1 (No Guitar 2)	       
e|---------------------------|
B|---------------------------|
G|-11/77777/66\7-------------|x8
D|-x-/xxxxx/xx\x-------------|
A|-9-/55555/44\5-------------|
E|---------------------------|
 
There is no guitar (0:57-1:20)

			Verse 1:

	(1:21-1:46)	Guitar 1
e|-------------------------------------------|
B|-------------------------------------------|
G|-1111111111111111/99999999-----------------|
D|-x-x-x-x-x-x-x-x-/xxxxxxxx-----------------|
A|-9-9-9-9-9-9-9-9-/77777777-----------------|
E|-------------------------------------------|
   
e|-------------------------------------------|
B|-------------------------------------------|
G|-1111111111111111\1212121212121212---------|
D|-x-x-x-x-x-x-x-x-\x-x-x-x-x-x-x-x----------|
A|-9-9-9-9-9-9-9-9-\1010101010101010---------|
E|-------------------------------------------|

e|-------------------------------------------|
B|-------------------------------------------|
G|-1111111111111111/99999999-----------------|
D|-x-x-x-x-x-x-x-x-/xxxxxxxx-----------------|
A|-9-9-9-9-9-9-9-9-/77777777-----------------|
E|-------------------------------------------|

e|-------------------------------------------|
B|-------------------------------------------|
G|-1111111111111111\1212121212121212---------|
D|-x-x-x-x-x-x-x-x-\x-x-x-x-x-x-x-x----------|
A|-9-9-9-9-9-9-9-9-\1010101010101010---------|
E|-------------------------------------------|
                        
                        Guitar 2
e|-------------------------------------------|
B|-------------------------------------------|
G|-------7-8-7-8-9---------------------------|x8
D|-------------------------------------------|
A|-------------------------------------------|
E|-------------------------------------------|
                                   				

		        Chorus:							 
			   				      
	(1:47-2:10)     Guitar 1
e|-------------------------------------------|
B|-------------------------------------------|
G|-77777777----------------------------------|x4
D|-77777777--7777--5555----------------------|
A|-55555555--7777--5555----------------------|
E|-----------5555--3333----------------------|

                        Guitar 2 
e|-------------------------------------------|
B|-------------------------------------------|
G|-11~---------------------------------------|x4
D|-x-~---------------------------------------|
A|-9-~---------------------------------------|
E|-------------------------------------------|


                        Intro: 			
			
	(2:11-2:23)	Guitar 1 (No Guitar 2)	       
e|---------------------------|
B|---------------------------|
G|-11/77777/66\7-------------|x4
D|-x-/xxxxx/xx\x-------------|
A|-9-/55555/44\5-------------|
E|---------------------------|	

There is no guitar (2:24-2:47)
			

			Verse 2:

	(2:48-3:12)	Guitar 1
e|-------------------------------------------|
B|-------------------------------------------|
G|-1111111111111111/99999999-----------------|
D|-x-x-x-x-x-x-x-x-/xxxxxxxx-----------------|
A|-9-9-9-9-9-9-9-9-/77777777-----------------|
E|-------------------------------------------|
   
e|-------------------------------------------|
B|-------------------------------------------|
G|-1111111111111111\1212121212121212---------|
D|-x-x-x-x-x-x-x-x-\x-x-x-x-x-x-x-x----------|
A|-9-9-9-9-9-9-9-9-\1010101010101010---------|
E|-------------------------------------------|

e|-------------------------------------------|
B|-------------------------------------------|
G|-1111111111111111/99999999-----------------|
D|-x-x-x-x-x-x-x-x-/xxxxxxxx-----------------|
A|-9-9-9-9-9-9-9-9-/77777777-----------------|
E|-------------------------------------------|

e|-------------------------------------------|
B|-------------------------------------------|
G|-1111111111111111\1212121212121212---------|
D|-x-x-x-x-x-x-x-x-\x-x-x-x-x-x-x-x----------|
A|-9-9-9-9-9-9-9-9-\1010101010101010---------|
E|-------------------------------------------|
                        
                        Guitar 2
e|-------------------------------------------|
B|-------------------------------------------|
G|-------7-8-7-8-9---------------------------|x8
D|-------------------------------------------|
A|-------------------------------------------|
E|-------------------------------------------|

                        Chorus:							 
			   				      
	(3:13-3:37)     Guitar 1
e|-------------------------------------------|
B|-------------------------------------------|
G|-77777777----------------------------------|x4
D|-77777777--7777--5555----------------------|
A|-55555555--7777--5555----------------------|
E|-----------5555--3333----------------------|

                        Guitar 2 
e|-------------------------------------------|
B|-------------------------------------------|
G|-11~---------------------------------------|x4
D|-x-~---------------------------------------|
A|-9-~---------------------------------------|
E|-------------------------------------------|
                                   		

			Bridge:
		There is no guitar (3:38-4:02)


                        Chorus:							 
			   				      
	(4:03-4:27)     Guitar 1
e|-------------------------------------------|
B|-------------------------------------------|
G|-77777777----------------------------------|x4
D|-77777777--7777--5555----------------------|
A|-55555555--7777--5555----------------------|
E|-----------5555--3333----------------------|

                        Guitar 2 
e|-------------------------------------------|
B|-------------------------------------------|
G|-11~---------------------------------------|x4
D|-x-~---------------------------------------|
A|-9-~---------------------------------------|
E|-------------------------------------------|

                         
                        Outro x4
                  Same as Chorus (4:28-4:54)
End on:
 Guitar 1
e|---|
B|---|
G|-7~|
D|-7~|
A|-5~|
E|---|

 Guitar 2 
e|----|
B|----|
G|-11~|
D|-x-~|
A|-9-~|
E|----|

            
            
Suggest correction
Creating personal tab
Creating personal tab
You can edit any tab online and save it as your Personal.

You can edit, replace or remove any tab part or add personal notes – all changes will be seen only by you.

Personal tabs can be accessed anytime from any device, even offline.
Learn more »
comments
print report bad tab
16 comments total. Showing first comments.
0 reply
atticus44 92 Oct 11, 2007 12:04 AM

I saw one problem and i dont know how to change it,
in the verse dont use this
e|-------------------------------------------|
B|-------------------------------------------|
G|-1111111111111111/77777777-----------------|
D|-x-x-x-x-x-x-x-x-/xxxxxxxx-----------------|
A|-9-9-9-9-9-9-9-9-/55555555-----------------|
E|-------------------------------------------|

Use this
e|-------------------------------------------|
B|-------------------------------------------|
G|-1111111111111111/99999999-----------------|
D|-x-x-x-x-x-x-x-x-/xxxxxxxx-----------------|
A|-9-9-9-9-9-9-9-9-/77777777-----------------|
E|-------------------------------------------|

0 reply
atticus44 92 Oct 12, 2007 12:16 PM

I have change it now;)

+1 reply
Blnkone82rulz 240 Oct 21, 2007 10:09 AM

how do you change things?
and good tab by the way best one so far

guest
You may want to rate the tab now too:
select rating
Wanna post a correction for this tab? Suggest correction