Oops, an error
Loading. Please wait.

Sirens tab

version 3
version 3
9,879 views 9 this week
9 commentsread comments
1 2 3 4 5
x 5
add to favorites
×
Save as Personal and add changes to this tab that will be seen only by you. Learn more ›
×
You can save this tab as Personal to edit and correct it or add notes. All changes will be seen only by you. Learn more »
launch autoscroll
font size
0
reset
how to read this tab
guitar tuner
edit
Autoscroll
slow
fast
+/-
esc
set tempo
stop
Author
-------------------------------------------------------------------------------
                             Sirens - Angels & Airwaves
-------------------------------------------------------------------------------


Tuning:Standard


Verse

Guitar

E|-------------------------|
B|---------------------77--|
G|-7-7---7-7--7-7------77--|
D|-7-7---7-7--7-7----------|
A|-------------------------|
E|-------------------------|


Pre Chorus

E|---------------------|
B|---------------------|
G|-7-7----7-7----7-9---|
D|-x-x----5-5----7-7---|
A|-0-0----0-0----0-0---|
E|---------------------|

Chorus
E|------------------|
B|------------------|
G|--7---------------|
D|--7----5-----7----|
A|--5----5-----7----|
E|-------3-----5----|


Chorus
E|-------------------------|
B|-------------------------|
G|---6-7---7h9-6-7--6-7-9--|
D|--0-7-0-0---0-0-0--0-7---|
A|-------------------------|
E|-------------------------|


Bridge

e|--------------------------------------------------------------|
b|--------------------------------------------------------------|
G|-14--11--9---7-7-7-7- 7-9-9-11-7----11-11-12-11-9----9-11-7---|
D|-X---X---X---x-x-x-x--x-x-x-x--x----x--x--x--x--x----x-x-x----|
A|-12--9---7---5-5-5-5--5-7-7-9--5----9--9--10-9--7----7-9-5----|
E|--------------------------------------------------------------|

            
            
Suggest correction
Creating personal tab
Creating personal tab
You can edit any tab online and save it as your Personal.

You can edit, replace or remove any tab part or add personal notes – all changes will be seen only by you.

Personal tabs can be accessed anytime from any device, even offline.
Learn more »
comments
print report bad tab
9 comments total. Showing first comments.
0 reply
guitargod5 82 Oct 19, 2007 05:51 PM

um please dont copy my tab.

you got the "lead" on the verses wrong.

you directly copyed my work.

0 reply
guitargod5 82 Oct 19, 2007 06:47 PM

and you screwed up my work

0 reply
MattH5 56 Oct 21, 2007 06:41 AM

Yeah i know it's wrong but it's better than your tab. The bridge on yours sounded like garbage, as well as the chorus.

guest
You may want to rate the tab now too:
select rating
Wanna post a correction for this tab? Suggest correction