Oops, an error
Loading. Please wait.

Star Of Bethlehem tab

version 2
version 2

Whole song

Interactive

4,532 views 6 this week
9 commentsread comments
1 2 3 4 5
x 12
add to favorites
×
Save as Personal and add changes to this tab that will be seen only by you. Learn more ›
×
You can save this tab as Personal to edit and correct it or add notes. All changes will be seen only by you. Learn more »
launch autoscroll
font size
0
reset
how to read this tab
guitar tuner
edit
Autoscroll
slow
fast
+/-
esc
set tempo
stop
Author
Difficulty
Intro

Delay (0:25 starts the first one)
E|-----------------------------------|
B|-----------------------------------|
G|---9------7------------------------|
D|-----7-7----7-7--7-7---------------|
A|---------------------7-7-7-7-------|
E|-----------------------------------|

(play softly) at 1:16 aprox.
E|-----------------------------------|
B|-----------------------------------|
G|-----------------------------------|
D|--11---7------9---7------9--11--7--|
A|-----------------------------------|
E|-----------------------------------|

Intro continues 2:01
E|---------------------------------------------------------------|
B|---------------------------------------------------------------|
G|---------------------------------------------------------------|
D|--11-(11)--7-(7)-----9-(9)---7-(7)-----9-(9)--11-(11)--7-(7)---|
A|---------------------------------------------------------------|
E|---------------------------------------------------------------|

Pre-Chorus
Appears at 3:09 ... u get the rithm
Palm Mute-Delay
E|------------------------|
B|------------------------|
G|-9----9-----6-7-6-------|
D|--7----7----------7-7---|
A|------------------------|
E|------------------------|

Chorus
At 4:00  you go with this

------------------------|
--10---10---10---10-----|
---9----7-----9----7----|
---7----7-----7----7----|
------------------------|
------------------------|

Verse (Palm Mute-Delay) 4:15

E|--------------------------|
B|--------------------------|
G|--------------------------|
D|--7-7--7-7--7-7--7-7--7-7-|
A|--------------------------|
E|--------------------------|

Pre-Chorus
4:45 
E|--------------------------------------|
B|--------------------------------------|
G|--9-9--6-7-6-7-9----9-9--6-7-6--------|
D|--7-7--7-7-7-7-7----7-7--7-7-7-7------|
A|--0-0--0-0-0-0-0----0-0--0-0-0-0------|
E|--------------------------------------|

Chorus
The at 5:00 play this again
------------------------|
--10---10---10---10-----|
---9----7-----9----7----|
---7----7-----7----7----|
------------------------|
------------------------|

Verse 5:15
Pre-Chorus 5:45
Chorus 5:59

Interlude 6:28

E|-----------------------------------------9------------------|
B|-----10---11---10--------------------11---10----------------|
G|---9----9----9-------9---7---6-----9-------------9---7---6--|
D|-------------------7---7---7-------------------7---7---7----|
A|------------------------------------------------------------|
E|------------------------------------------------------------|

E|-----------------------------------------9------------------|
B|-----11--9--10-----------------------11---10----------------|
G|---9-----------------9---7---6-----9-------------9---7---6--|
D|-------------------7---7---7-------------------7---7---7----|
A|------------------------------------------------------------|
E|------------------------------------------------------------|

Chorus 6:59

At 7:58 start with this and fade until the end..play it very quickly

e|--4-5-4--7--4-5-4--7--4-5-4--7-|
B|-------------------------------|   
G|-------------------------------| 
D|-------------------------------| 
A|-------------------------------| 
E|-------------------------------| 

thank u ..have fun =)                                           

            
            
Suggest correction
Creating personal tab
Creating personal tab
You can edit any tab online and save it as your Personal.

You can edit, replace or remove any tab part or add personal notes – all changes will be seen only by you.

Personal tabs can be accessed anytime from any device, even offline.
Learn more »
comments
print report bad tab
9 comments total. Showing first comments.
0 reply
AVAguitar182 10 Dec 26, 2006 10:53 AM

i think the intro is more like
E|-----------------------------------|
B|-----------------------------------|
G|-----------------------------------|
D|--11~---------9~---------9--11--7--|
A|-----------------------------------|
E|-----------------------------------|

Intro continues 2:01
E|---------------------------------------------------------------|
B|---------------------------------------------------------------|
G|---------------------------------------------------------------|
D|--11-(11)---------9-(9)------------9-(9)--11-(11)--7-(7)-------|
A|---------------------------------------------------------------|
E|---------------------------------------------------------------|

0 reply
AVAguitar182 10 Dec 26, 2006 10:54 AM

great work though, this probably the most accurate tab ive seen

0 reply
AVAguitar182 10 Dec 27, 2006 06:50 AM

i take back my first comment, sorry. after getting the timing down its defintely your intro thats correct

guest
You may want to rate the tab now too:
select rating
Wanna post a correction for this tab? Suggest correction