Oops, an error
Loading. Please wait.

The Flight Of Apollo tab

version 4
version 4

Interactive

6,535 views 1 this week
16 commentsread comments
1 2 3 4 5
x 3
add to favorites
×
Save as Personal and add changes to this tab that will be seen only by you. Learn more ›
×
You can save this tab as Personal to edit and correct it or add notes. All changes will be seen only by you. Learn more »
launch autoscroll
font size
0
reset
how to read this tab
guitar tuner
edit
Autoscroll
slow
fast
+/-
esc
set tempo
stop
Great song off of a great album. I haven't seen a correct version
of this tab yet. The only part I'm unsure of is the chorus chords.
Other than that it's right.

Intro chords
e|-----------------------------------|
B|-----------------------------------|
G|-----------------------------------|
D|--------------6--------------------|
A|--7-7--6h7-6--4--7--7--6h7--2------|
E|--5-5--4h5-4-----5--5--4h5--0------|
^^not tabbed exactly right, but you can get the general idea of it

Verse
e|------------------------------------|
B|------------------------------------|
G|-11-11-11--11-11-----9----7~--------|
D|-x--x--x---x--x------x----7~--------|
A|-9--9--9---9--9------7----5~--------|
E|------------------------------------|


Prechorus - Palm Muted
*Figure out the number of strums yourself, it's not hard
e|----------------------------------|
B|----------------------------------|
G|----------------------------------|
D|--7--7--9---------7--7--9---------|
A|--4--5--7--7--7---4--5--7---------|
E|-----------5--4-------------------|

*on the 2 chords on the 6th string, the strumming will be shorter. I believe its 4 
for the A5 chord and 4 for the following chord. (as opposed to 8 strums for all the others)
And yes, those two chords are there, I can hear it loud and clear.
Other tabbers, feel free to steal the prechorus from my tab.

Chorus - Unsure really of what's being played
but thanks to Stay_Frosty, here's an idea...
Clean, strummed lightly
e|--------------------------------------------------------------------|
B|--------------------------------------------------------------------|
G|--------------------------------------------------------------------|
D|--7-7-7-7-7-7-7-7-6-6-6-6-6-6-6-6-7-7-7-7-7-7-7-7-6-6-6-6-6-6-6-6---|
A|--x-x-x-x-x-x-x-x-x-x-x-x-x-x-x-x-x-x-x-x-x-x-x-x-x-x-x-x-x-x-x-x---|
E|--5-5-5-5-5-5-5-5-4-4-4-4-4-4-4-4-5-5-5-5-5-5-5-5-4-4-4-4-4-4-4-4---|

e|-------------------------------------------------------------------------|
B|-------------------------------------------------------------------------|
G|-----------------9-9-9-9-9-9-9-9-11-11-11-11-11-11-11-11-7-7-7-7-7-7-7-7-|
D|-7-7-7-7-7-7-7-7-x-x-x-x-x-x-x-x-x---x--x--x--x--x--x--x-x-x-x-x-x-x-x-x-|
A|-x-x-x-x-x-x-x-x-7-7-7-7-7-7-7-7-9---9--9--9--9--9--9--9-5-5-5-5-5-5-5-5-|
E|-5-5-5-5-5-5-5-5---------------------------------------------------------|


Outro - I KNOW the 7x9 is there, other tabs have omitted it...
e|---------------------------------------------------------------------------|
B|---------------------------------------------------------------------------|
G|---------------------------------------------------------------------------|
D|--7--7------7--7------6--6------6--6------7--7------7--7-------------------|
A|--x--x--xx--x--x--xx--x--x--xx--x--x--xx--x--x--xx--x--x--xx---------------|
E|--5--5--xx--5--5--xx--4--4--xx--4--4--xx--5--5--xx--5--5--xx---------------|

e|---------------------------------------------------------------------------|
B|---------------------------------------------------------------------------|
G|---------------------------------------------------------------------------|
D|-6--6------6--6------7--7------9--9------9--9------7--7------7--7----------|
A|-x--x--xx--x--x--xx--x--x--xx--x--x--xx--x--x--xx--x--x--xx--x--x--xx------|
E|-4--4--xx--4--4--xx--5--5--xx--7--7--xx--7--7--xx--5--5--xx--5--5--xx------|
                            ^^oops forgot to put in another 5x7 there

e|---------------------------------------------------------------------------|
B|---------------------------------------------------------------------------|
G|-7--7------7--7------------------------------------------------------------|
D|-x--x------x--x------------------------------------------------------------|
A|-5--5--xx--5--5------------------------------------------------------------|
E|-------xx------------------------------------------------------------------|

Repeat outro as necessary until song heads into Young London

            
            
Suggest correction
Creating personal tab
Creating personal tab
You can edit any tab online and save it as your Personal.

You can edit, replace or remove any tab part or add personal notes – all changes will be seen only by you.

Personal tabs can be accessed anytime from any device, even offline.
Learn more »
Give kudos to tab author, rate the tab!
1 2 3 4 5
comments
print report bad tab
16 comments total. Showing first comments.
0 reply
thecrimsondawn 302 Feb 18, 2010 03:36 PM

this is really accurate. the 9 a 11 g chord is only played 3 times from what i can tell instead of the 4 times you put. the 6 4 4 chord in the chorus doesn't sound quite right, like you said. but i can't figure out what it really is either. over all great tab! sounds awesome!

0 reply
guitarmaniac182 51 Feb 18, 2010 03:43 PM

You're right about the 9x11. Idk why I put it 4 times when it's clearly 3.
I still really don't know about the chorus...it's too quiet to make out.

0 reply
al182 16 Feb 19, 2010 01:29 AM

the chorus is A, E, A, E, A, D, E, D...like this;

then

but then when Tom sings "so sadly"
you slide up to make a D on the bottom E fret..like this:
D-12
A-12
E-10

then you go back to the E and then slide down to the D like this...

i think anyway....iv mixed it up a bit and tryed a few different chords, but that sounds the best.

anyways, i hope that makes sense..

guest
You may want to rate the tab now too:
select rating
Wanna post a correction for this tab? Suggest correction