Oops, an error
Loading. Please wait.

A Monster In Her Eyes tab

by Angra
276 views 1 this week
no commentswrite comment
1 2 3 4 5
3 more votes to show rating
add to favorites
×
Save as Personal and add changes to this tab that will be seen only by you. Learn more ›
×
You can save this tab as Personal to edit and correct it or add notes. All changes will be seen only by you. Learn more »
launch autoscroll
font size
0
reset
how to read this tab
guitar tuner
edit
Autoscroll
slow
fast
+/-
esc
set tempo
stop
Angra - A Monster In Her Eyes

Intro: Em  D/F#  G  Am  G  Em
       Em  D/F#  G  Am

Verse 1:

Em   D/F#  G     Am  G   Em
I always  was a lo__wer being
Em           D/F#  G      Am
   Not much, I'm  just a beast
Em      D/F#   G
   You might think 
         Am         G  Em
I'm the lowest of the low
C               B7
  But there is something
             (harmônico)
You should know

Verse 2:

 Em          D/F#  G
Long before you   came
            Am    G  Em
You'd have found me here
Em        D/F#  G               Am
   And never   begged for your help
          F            C          G
This old land will be mine once again

Chorus:

    G#º     Am       A9/G
And all my sacrifice
         F          Em
Will be worth the price
     Dm  C       G
And ne_____ver again 
           G#º            Am
I'll be a monster in your eyes

Verse 3:

Em           D/F#  G
   You took my   freedom
      Am                 Em
And shaped it into your servant
C                G
  You taught me your tongue
   D            Em
Denying me the word

Verse 4:

G          D    Em     Bm  A
  Lord O' mine for so long
G                D         Bm
  Now comes the time to regain
 A  G          Em/B  B7      Cº
My land and Miran____da will see

Refrão Final:

G#      C#m      B
All my sacrifice 
         A              G#m
Will be worth the price
     F#m  E    B
And ne___ver again 

     Cº    C#m     B
My stolen paradise
         F#/A#      A
Will be worth the price
        B
And no longer 
           C#º           Em  D/F#  G  C  B7
I'll be a monster in her eyes
                         Em  D/F#  G  C  B7
I'll be a monster in her eyes
                          Bm
I'm just a monster in her eyes

Intro:


   Em   D/F#  G            Am     G  Em
E|-0--x------------------------x------------|
B|-0--x--3----0----------0--1--x--0--0------|
G|-0--x--2----0------0h2----2--x--0--0------|
D|-2--x--0----0----0--------2--x--0--2------|
A|-2--x---------------------0--x-----2------|
E|-0—-x--2----3--3-------------x--3--0------|


   Em   D/F#  G
E|-0--x-------------------------------------|
B|-0--x--3----0----------0------------------|
G|-0--x--2----0------0h2--------------------|
D|-2--x--0----0----0------------------------|
A|-2--x-------------------------------------|
E|-0—-x-—2----3--3--------------------------|


   Am

E|---------0----------------0---------------|
B|-----1-------1--------1-------1-----------|
G|-------2---2---2--------2---2---2---------|
D|---2----------------2---------------------|
A|-0----------------0-----------------------|
E|------------------------------------------|


   C                B7
E|---------3----------------2---------------|
B|-----1-------1--------0--------0----------|
G|-------0---0---0--------2----2---2--------|
D|---2----------------1---------------------|
A|-3----------------2-----------------------|
E|------------------------------------------|


H.A   .  .  .  . . .  .

E|---------12------7--5---------------------|
B|------12-------7--------------------------|
G|---12--------7----------------------------|
D|------------------------------------------|
A|------------------------------------------|
E|-0----------------------------------------|


Verse 1 e 2:


   Em   D/F#  G            Am     G  Em
E|-0--x------------------------x------------|
B|-0--x--3----0----------0--1--x--0--0------|
G|-0--x--2----0------0h2----2--x--0--0------|
D|-2--x--0----0----0--------2--x--0--2------|
A|-2--x---------------------0--x-----2------|
E|-0—-x--2----3--3-------------x--3--0------|


   Am

E|---------0----------------0---------------|
B|-----1-------1--------1-------1-----------|
G|---2---2---2---2----2---2---2---2---------|
D|------------------------------------------|
A|-0----------------0-----------------------|
E|------------------------------------------|


   F
E|---------1----------------1---------------|
B|-----1-------1--------1-------1-----------|
G|---2---2---2---2----2---2---2---2---------|
D|------------------------------------------|
A|------------------------------------------|
E|-1----------------1-----------------------|


   C
E|---------3----------------3---------------|
B|-----1-------1--------1-------1-----------|
G|---0---0---0---0----0---0---0---0---------|
D|------------------------------------------|
A|-3----------------3-----------------------|
E|------------------------------------------|


   G
E|---------3--------------------------------|
B|-----0-------0----------------------------|
G|---0---0---0---0--------------------------|
D|------------------------------------------|
A|------------------------------------------|
E|-3----------------------------------------|


Chorus:


   G#º
E|------------------------------------------|
B|---------3--------------------------------|
G|-----4-------4----------------------------|
D|---3---3---3---3--------------------------|
A|------------------------------------------|
E|-4----------------------------------------|


   Am               A9/G
E|---------0----------------0---------------|
B|-----1-------1--------0-------0-----------|
G|---2---2---2---2----2---2---2---2---------|
D|------------------------------------------|
A|-0----------------------------------------|
E|------------------3-----------------------|


   F                Em
E|---------1----------------0---------------|
B|-----1-------1--------0-------0-----------|
G|---2---2---2---2----0---0---0---0---------|
D|------------------------------------------|
A|------------------------------------------|
E|-1----------------0-----------------------|


   Dm               C
E|---------1----------------0---------------|
B|-----3-------3--------2-------2-----------|
G|---2---2---2---2----0---0---0---0---------|
D|-0----------------------------------------|
A|------------------3-----------------------|
E|------------------------------------------|


   G                G#º
E|---------3--------------------------------|
B|-----0-------0------------3---------------|
G|---0---0---0---0------4-------4-----------|
D|--------------------3---3---3---3---------|
A|------------------------------------------|
E|-3----------------4-----------------------|


   Am (2x)

E|---------0----------------0---------------|
B|-----1-------1--------1-------1-----------|
G|-------2---2---2--------2---2---2---------|
D|---2----------------2---------------------|
A|-0----------------0-----------------------|
E|------------------------------------------|

Passage Verse 4:

   Bm                       A
E|------------------------------------------|
B|-3---2---2---2---3---2----2---2-----------|
G|-4---2---4---2---4---2----2---2-----------|
D|-4---2---4---2---4---2----2---2-----------|
A|-2-2-2-2-2-2-2-2-2-2-2-2--0-0-0-0---------|
E|------------------------------------------|


   G
E|------------------------------------------|
B|-3---2---3---2---3---2---3---2------------|
G|-0---0---0---0---0---0---0---0------------|
D|-0---0---0---0---0---0---0---0------------|
A|------------------------------------------|
E|-3-3-3-3-3-3-3-3-3-3-3-3-3-3-3-3----------|


End:


  Em  D/F#  G  C  B7
E|-0--------------------------------------|
B|-0---3----0--1--4-----------------------|
G|-0---2----0--0--2-----------------------|
D|-2---0----0--2--4-----------------------|
A|-2-----------3--2-----------------------|
E|-0—--2----3-----------------------------|


   C#m
E|---------4--7/9--9----------------------|
B|-------5---------9----------------------|
G|-----6-----------9----------------------|
D|---6------------------------------------|
A|-4--------------------------------------|
E|-----------------9----------------------|

            
            
Suggest correction
Creating personal tab
Creating personal tab
You can edit any tab online and save it as your Personal.

You can edit, replace or remove any tab part or add personal notes – all changes will be seen only by you.

Personal tabs can be accessed anytime from any device, even offline.
Learn more »
Give kudos to tab author, rate the tab!
1 2 3 4 5
comments
print report bad tab
guest
You may want to rate the tab now too:
select rating
Wanna post a correction for this tab? Suggest correction