Oops, an error
Loading. Please wait.

Santa Monica Dream tab

version 5
version 5

Whole song

1,792 views 72 this week
1 commentread comment
1 2 3 4 5
x 4
add to favorites
×
Save as Personal and add changes to this tab that will be seen only by you. Learn more ›
×
You can save this tab as Personal to edit and correct it or add notes. All changes will be seen only by you. Learn more »
launch autoscroll
font size
0
reset
how to read this tab
guitar tuner
edit
Autoscroll
slow
fast
+/-
esc
set tempo
stop
About this tab version
Significantly, this tab allows for the song to be played in standard tuning and a capo on the 5th, instead of having to re-tune the guitar, as other tabbers have suggested. This is a full, comprehensive tab that omits no detail. It may prove markedly easier to play and decidedly more accurate than other tabs. This tab also includes lyrics and their precise relation to each progression. Furthermore, the solo has been included herein, for the purposes of convenience, enjoyment, and precision. Was this info helpful? Yes No
This was transposed by ear straight from the record with some minor inclusions from the "Live at the Trianon"
show.

Capo: 5

[Intro]

e|------1-------0-------0----------------------------------------------------|
B|------1-------0-------1----------------------------------------------------|
G|------2-------0-------0----------------------------------------------------|
D|------3-------0-------2----------------------------------------------------|
A|---0--3-------2----3--3----------------------------------------------------|
E|------1----3--3------------------------------------------------------------|

e|---------------------------------------------------------------------------|
B|-----------------------------------------1-------1-------1-------1---------|
G|-----0-------0---------0---0---0-------------------------------------------| X4
D|---------3---------2-----------------2-------2-------2-------2-------2-----|
A|---0---0---0---0h2---2---2---2---2/3---3---3---3---3---3---3---3---3-------|
E|---------------------------------------------------------------------------|

[Verse 1]

e|---------------------------------------------------------------------------|
B|-----------------------------------------1-------1-------1-------1---------|
G|-----0-------0---------0---0---0-------------------------------------------|
D|---------3---------2-----------------2-------2-------2-------2-------2-----|
A|---0---0---0---0h2---2---2---2---2/3---3---3---3---3---3---3---3---3-------|
E|---------------------------------------------------------------------------|
         Goodbye to  my  Santa Monica    dream.

e|---------------------------------------------------------------------------|
B|-----------------------------------------1-------1-------1-------1---------|
G|-----0-------0---------0---0---0-------------------------------------------|
D|---------3---------2-----------------2-------2-------2-------2-------2-----|
A|---0---0---0---0h2---2---2---2---2/3---3---3---3---3---3---3---3---3-------|
E|---------------------------------------------------------------------------|
     Fifteen kids in the backyard drinking wine.

e|---------------------------------------------------------------------------|
B|-----------------------------------------1-------1-------1-------1---------|
G|-----0-------0---------0---0---0-------------------------------------------|
D|---------3---------2-----------------2-------2-------2-------2-------2-----|
A|---0---0---0---0h2---2---2---2---2/3---3---3---3---3---3---3---3---3-------|
E|---------------------------------------------------------------------------|
           You tell me stories of  the     sea

e|---------------------------------------------------------------------------|
B|-----------------------------------------1-------1-------1-------1---------|
G|-----0-------0---------0---0---0-------------------------------------------|
D|---------3---------2-----------------2-------2-------2-------2-------2-----|
A|---0---0---0---0h2---2---2---2---2/3---3---3---3---3---3---3---3---3-------|
E|---------------------------------------------------------------------------|
               and the ones you left behind.

e|---------------------------------------------------------------------------|
B|-----------------------------------------1-------1-------1-------1---------|
G|-----0-------0---------0---0---0-------------------------------------------|
D|---------3---------2-----------------2-------2-------2-------2-------2-----|
A|---0---0---0---0h2---2---2---2---2/3---3---3---3---3---3---3---3---3-------|
E|---------------------------------------------------------------------------|
         Goodbye to the roses on your    street.

e|---------------------------------------------------------------------------|
B|-----------------------------------------1-------1-------1-------1---------|
G|-----0-------0---------0---0---0-------------------------------------------|
D|---------3---------2-----------------2-------2-------2-------2-------2-----|
A|---0---0---0---0h2---2---2---2---2/3---3---3---3---3---3---3---3---3-------|
E|---------------------------------------------------------------------------|
     Goodbye to  the  paintings on the wall.

e|---------------------------------------------------------------------------|
B|-----------------------------------------1-------1-------1-------1---------|
G|-----0-------0---------0---0---0-------------------------------------------|
D|---------3---------2-----------------2-------2-------2-------2-------2-----|
A|---0---0---0---0h2---2---2---2---2/3---3---3---3---3---3---3---3---3-------|
E|---------------------------------------------------------------------------|
         Goodbye to the children we'll never meet

e|---------------------------------------------------------------------------|
B|-----------------------------------------1-------1-------1-----------------|
G|-----0-------0---------0---0---0-------------------------------------------|
D|---------3---------2-----------------2-------2-------2-------2--2-2--------|
A|---0---0---0---0h2---2---2---2---2/3---3---3---3---3---3---3---3-2---------|
E|---------------------------------------------------------------------------|
               and the ones we left behind.

e|---------------------------------------------------------------------------|
B|-----------------------------------------1-------1-------1-------1---------|
G|-----0-------0---------0---0---0-------------------------------------------|
D|---------3---------2-----------------2-------2-------2-------2-------------|
A|---0---0---0---0h2---2---2---2---2/3---3---3---3---3---3---3---3-----------|
E|---------------------------------------------------------------------------|
            ...And the ones we left behind.

[Chorus]

e|---------------------------------------------------------------------------|
B|---------------------------------------------------------------------------|
G|---------0-------0-------0-------0-------0-------0-------0-------0---------|
D|-----2-------2-------2-------2-------2-------2-------2-------2-------------|
A|---3---3---3---3---3---3---3---3---3---3---3---3---3---3---3---3-----------|
E|---------------------------------------------------------------------------|
     I'm somewhere.                  You're  somewhere.
    
e|---------------------------------------------------------------------------|
B|---------------------------------------------------------------------------|
G|---------0-------0-------0-------0-------0-------0-------0-------0---------|
D|-----2-------2-------2-------2-------2-------2-------2-------2-------------|
A|---3---0---0---0---0---0---0---0---0---0---0---0---0---0---0---0-----------|
E|---------------------------------------------------------------------------|
     I'm nowhere.                    You're nowhere.

e|---------------------------------------------------------------------------|
B|-----------------------------------------1-------1-------1-----------------|
G|-----0-------0---------0---0---0-------------------------------------------|
D|---------3---------2-----------------2-------2-------2-------2--2-2--------|
A|---0---0---0---0h2---2---2---2---2/3---3---3---3---3---3---3---3-2---------|
E|---------------------------------------------------------------------------|
     You're somewhere.             You're somewhere.             I could

e|---------------------------------------------------------------------------|
B|-----------------------------------------1-------1-------1-------1---------|
G|-----0-------0---------0---0---0-------------------------------------------|
D|---------3---------2-----------------2-------2-------2-------2-------2-----|
A|---0---0---0---0h2---2---2---2---2/3---3---3---3---3---3---3---3---3-------|
E|---------------------------------------------------------------------------|
     go there              but I don't.

[Verse 2]

e|---------------------------------------------------------------------------|
B|-----------------------------------------1-------1-------1-------1---------|
G|-----0-------0---------0---0---0-------------------------------------------|
D|---------3---------2-----------------2-------2-------2-------2-------2-----|
A|---0---0---0---0h2---2---2---2---2/3---3---3---3---3---3---3---3---3-------|
E|---------------------------------------------------------------------------|
             Rob's in the kitchen, making pizza

e|---------------------------------------------------------------------------|
B|-----------------------------------------1-------1-------1-------1---------|
G|-----0-------0---------0---0---0-------------------------------------------|
D|---------3---------2-----------------2-------2-------2-------2-------2-----|
A|---0---0---0---0h2---2---2---2---2/3---3---3---3---3---3---3---3---3-------|
E|---------------------------------------------------------------------------|
     somewhere         down in Battery Park.

e|---------------------------------------------------------------------------|
B|-----------------------------------------1-------1-------1-------1---------|
G|-----0-------0---------0---0---0-------------------------------------------|
D|---------3---------2-----------------2-------2-------2-------2------2-2----|
A|---0---0---0---0h2---2---2---2---2/3---3---3---3---3---3---3---3---3-2-----|
E|---------------------------------------------------------------------------|
             I'm singin' songs about the future,

e|---------------------------------------------------------------------------|
B|-----------------------------------------1-------1-------1-------1---------|
G|-----0-------0---------0---0---0-------------------------------------------|
D|---------3---------2-----------------2-------2-------2-------2-------2-----|
A|---0---0---0---0h2---2---2---2---2/3---3---3---3---3---3---3---3---3-------|
E|---------------------------------------------------------------------------|
             wonderin' where       you are.

e|---------------------------------------------------------------------------|
B|-----------------------------------------1-------1-------1-------1---------|
G|-----0-------0---------0---0---0-------------------------------------------|
D|---------3---------2-----------------2-------2-------2-------2-------2-----|
A|---0---0---0---0h2---2---2---2---2/3---3---3---3---3---3---3---3---3-------|
E|---------------------------------------------------------------------------|
             I could call you on the telephone...

e|---------------------------------------------------------------------------|
B|-----------------------------------------1-------1-------1-------1---------|
G|-----0-------0---------0---0---0-------------------------------------------|
D|---------3---------2-----------------2-------2-------2-------2-------2-----|
A|---0---0---0---0h2---2---2---2---2/3---3---3---3---3---3---3---3---3-------|
E|---------------------------------------------------------------------------|
             Do I really wanna know?

e|---------------------------------------------------------------------------|
B|-----------------------------------------1-------1-------1-------1---------|
G|-----0-------0---------0---0---0-------------------------------------------|
D|---------3---------2-----------------2-------2-------2-------2-------2-----|
A|---0---0---0---0h2---2---2---2---2/3---3---3---3---3---3---3---3---3-------|
E|---------------------------------------------------------------------------|
         You're making love, now, to the lady down the road.    No, I don't...

e|---------------------------------------------------------------------------|
B|-----------------------------------------1-------1-------1-------1---------|
G|-----0-------0---------0---0---0-------------------------------------------|
D|---------3---------2-----------------2-------2-------2-------2-------2-----|
A|---0---0---0---0h2---2---2---2---2/3---3---3---3---3---3---3---3---3-------|
E|---------------------------------------------------------------------------|
                           I don't wanna know.

[Chorus]

e|---------------------------------------------------------------------------|
B|---------------------------------------------------------------------------|
G|---------0-------0-------0-------0-------0-------0-------0-------0---------|
D|-----2-------2-------2-------2-------2-------2-------2-------2-------------|
A|---3---3---3---3---3---3---3---3---3---3---3---3---3---3---3---3-----------|
E|---------------------------------------------------------------------------|
     I'm somewhere.                  You're  somewhere.
    
e|---------------------------------------------------------------------------|
B|---------------------------------------------------------------------------|
G|---------0-------0-------0-------0-------0-------0-------0-------0---------|
D|-----2-------2-------2-------2-------2-------2-------2-------2-------------|
A|---3---0---0---0---0---0---0---0---0---0---0---0---0---0---0---0-----------|
E|---------------------------------------------------------------------------|
     I'm nowhere.                    You're nowhere.

e|---------------------------------------------------------------------------|
B|-----------------------------------------1-------1-------1-----------------|
G|-----0-------0---------0---0---0-------------------------------------------|
D|---------3---------2-----------------2-------2-------2-------2--2-2--------|
A|---0---0---0---0h2---2---2---2---2/3---3---3---3---3---3---3---3-2---------|
E|---------------------------------------------------------------------------|
     You're somewhere.             You're somewhere.             I could

e|---------------------------------------------------------------------------|
B|-----------------------------------------1-------1-------1-------1---------|
G|-----0-------0---------0---0---0-------------------------------------------|
D|---------3---------2-----------------2-------2-------2-------2-------2-----|
A|---0---0---0---0h2---2---2---2---2/3---3---3---3---3---3---3---3---3-------|
E|---------------------------------------------------------------------------|
     go there              but I don't.

[Solo: guitar 2]- (play over same progression as verse)

e|---------------------------------------------------------------------------|
B|--3---3h5----5--3--3--3/1--1h3--3-1(n)---3--3--3h5--5--3-----3-3b----1--0--|
G|----------------------------------------------------------5----------------|
D|---------------------------------------------------------------------------|
A|---------------------------------------------------------------------------|
E|---------------------------------------------------------------------------|

[Verse/Outro]

e|---------------------------------------------------------------------------|
B|-----------------------------------------1-------1-------1-------1---------|
G|-----0-------0---------0---0---0-------------------------------------------|
D|---------3---------2-----------------2-------2-------2-------2-------2-----|
A|---0---0---0---0h2---2---2---2---2/3---3---3---3---3---3---3---3---3-------|
E|---------------------------------------------------------------------------|
         Goodbye to  my  Santa Monica    dream.

e|---------------------------------------------------------------------------|
B|-----------------------------------------1-------1-------1-------1---------|
G|-----0-------0---------0---0---0-------------------------------------------|
D|---------3---------2-----------------2-------2-------2-------2-------2-----|
A|---0---0---0---0h2---2---2---2---2/3---3---3---3---3---3---3---3---3-------|
E|---------------------------------------------------------------------------|
     Fifteen kids in the backyard drinking wine.

e|---------------------------------------------------------------------------|
B|-----------------------------------------1-------1-------1-------1---------|
G|-----0-------0---------0---0---0-------------------------------------------|
D|---------3---------2-----------------2-------2-------2-------2-------2-----|
A|---0---0---0---0h2---2---2---2---2/3---3---3---3---3---3---3---3---3-------|
E|---------------------------------------------------------------------------|
           You tell me stories of  the     sea

e|---------------------------------------------------------------------------|
B|-----------------------------------------1-------1-------1-------1---------|
G|-----0-------0---------0---0---0-------------------------------------------|
D|---------3---------2-----------------2-------2-------2-------2-------2-----|
A|---0---0---0---0h2---2---2---2---2/3---3---3---3---3---3---3---3---3-------|
E|---------------------------------------------------------------------------|
               and the ones you left behind.

e|---------------------------------------------------------------------------|
B|-----------------------------------------1-------1-------------------------|
G|-----0-------0---------0---0---0-------------------------------------------|
D|---------3---------2-----------------2-------2-------2---------------------|
A|---0---0---0---0h2---2---2---2---2/3---3---3---3---3----3------------------|
E|---------------------------------------------------------------------------|
              ...And the ones we left behind.


                                             FIN

| (n) Ghost note
| h   Hammer-on
| b   Bend
| /   Slide up

            
            
Suggest correction
Creating personal tab
Creating personal tab
You can edit any tab online and save it as your Personal.

You can edit, replace or remove any tab part or add personal notes – all changes will be seen only by you.

Personal tabs can be accessed anytime from any device, even offline.
Learn more »
comments
print report bad tab
1 comment total.
0 reply
rollanddeadrising 10 May 24, 2016 04:58 AM

didn't like this contribution

guest
You may want to rate the tab now too:
select rating
Wanna post a correction for this tab? Suggest correction