Oops, an error
Loading. Please wait.

Way Tight tab

version 2
version 2

Whole song

408 views 1 this week
no commentswrite comment
1 2 3 4 5
3 more votes to show rating
add to favorites
×
Save as Personal and add changes to this tab that will be seen only by you. Learn more ›
×
You can save this tab as Personal to edit and correct it or add notes. All changes will be seen only by you. Learn more »
launch autoscroll
font size
0
reset
how to read this tab
guitar tuner
edit
Autoscroll
slow
fast
+/-
esc
set tempo
stop
Author
Difficulty
Tuning: EADGCe - on the record it is Eb Ab Db Gb B eb
The other tab on here was fairly close, but I think this one is slightly more correct. 
Album: Red Letter Year


e|-0--0-----------0--5--0---0-----0-----0-----------0------------------0-------------|
C|-0-----0-----5-----4----0----5-----4-----4-----2-----0------------------0-----0----|
G|----------0--4---------------4-----0--------0--0-----0---------------------0--0----|
D|-------------------5---------------------------------------------------------------|
A|-------------5---------------5-----------------------------------------------------|
E|-1---------------------------------5-----------2-----1--1--1--1-1p0-----------1----|

e|-0--------3--1--1--------2--2--------3-----0-----------0--5--5--5--5--5------------|
C|----0-----0--0-----0-----0-----0-----2--0-----0-----5-----4------------------------|
G|-------0--------------0-----------0-----0--------0--4------------------------------|
D|----------------------------------------------------------5------------------------|
A|----------3-----------------------------------------5------------------------------|
E|-------------1-----------2-----------3--1------------------------------------------|

e|-8--8--------3--3----------------------------------|
C|-9-----9--3--0--0----------------------------------|
G|----------0-----0----------------------------------|
D|----------------2----------------------------------|
A|-8-----------3--3----------------------------------|
E|----------3-----0----------------------------------|

It's just that over and over again pretty much. :)

Lyrics:

I'll tell you what there is plenty wrong with me
But I fixed up a few old buildings and I planted a few trees
And children seem to like me and animals too
Like the birds and the bees

And eating a sandwich standing over the kitchen counter
With only the sound of chewing in the room
I can see you as a challenge that I will eagerly meet
'Cause you are way, way, way, way sweet

And it's just that kind of evening that cracks open like a half shaken beer
Cool and refreshing and running down your arm
And baby there's really no other place I'd rather be than here
Pardon my periodic alarm

You are ever true, ever new in love
And I mean that in the best and worst way
And I don't really know what I was so mad about
But the full moon is about a week away

And I'll tell you what there is plenty wrong with you
Stuff you'd sooner fight for than cop to
But I think it's just more reason why we are meant to be
People say that I look like you and you look like me

We get this crazy combination of everything and nothing right
But we are way, way, way, way, way, way, way, way, way tight
Yeah, we are way, way, way, way, way, way, way, way, way tight
Yeah, we are way, way, way, way, way, way, way tight

            
            
Suggest correction
Creating personal tab
Creating personal tab
You can edit any tab online and save it as your Personal.

You can edit, replace or remove any tab part or add personal notes – all changes will be seen only by you.

Personal tabs can be accessed anytime from any device, even offline.
Learn more »
Give kudos to tab author, rate the tab!
1 2 3 4 5
comments
print report bad tab
guest
You may want to rate the tab now too:
select rating
Wanna post a correction for this tab? Suggest correction