Oops, an error
Loading. Please wait.

Bundy bass

3,139 views 1 this week
3 commentsread comments
1 2 3 4 5
x 3
add to favorites
×
Save as Personal and add changes to this tab that will be seen only by you. Learn more ›
×
You can save this tab as Personal to edit and correct it or add notes. All changes will be seen only by you. Learn more »
launch autoscroll
font size
0
reset
guitar tuner
edit
Autoscroll
slow
fast
+/-
esc
set tempo
stop
Author
Difficulty
Animal Alpha – Bundy
http://www.animalalpha.com

I'm sorry, you who posted the first one, but it was horribly off-cue.

Note(s): You can use drop-D tuning if you want a deeper bass sound. Riff 1 for instance 
then look like this: D|-1-1-1-1-7-7-4-4-1-1-1-1-4-4-6-6, and so on, but I prefer normal 
for this.

I know you can also play riff 1 exclusively on the D-string, but I wouldn’t recommend 
to do that. I’ve moved riffs down to different strings for a reason. If you find it 
move them back up.

I’m just going to show how the riffs go. You have to figure out timing for yourself.

Intro / Break: (You can do some variation on the key, like playing the fift or seventh sometime)
G|--------------------------|
D|--------------------------|
A|-6-6-6-6-6-6-6-6-6--------|
E|--------------------------|

Riff 1
G|-------------------------------------------------------------------------|
D|-----------7-7-4-4-----------4-4-6-6-----------7-7-4-4--------4---6---7--|
A|-6-6-6-6-----------6-6-6-6-----------6-6-6-6-----------6-6-6---6---6-----|
E|-------------------------------------------------------------------------|

Riff 2 (This is what’s most frequently played during the song. He adds some fill (F) on 
that I haven’t figured out yet.)
G|-----------------------------------------------------------------------------|
D|-----------------------------------------------------------------------------|
A|--6-6--6-6-6-6-----------------------6-6--6-6-6-6----------------------------|
E|------------------6-6-6-6-6-6-6-6-----------------------6-6-6-(F)-6-6-6-6-6--|

G|----------------------------------------------------------------------------|
D|----------------------------------------------------------------------------|
A|-6-6--6-6-6-6---------------------------------------------------------------|
E|-----------------6-6-6-6-6-6-6---2-2-2-2-4-4-4-4-5-5-5-5-5-5-5-5------------|


If you think that this tab is wrong: Go clean your ears…

Holesnusken

            
            
Suggest correction
Creating personal tab
Creating personal tab
You can edit any tab online and save it as your Personal.

You can edit, replace or remove any tab part or add personal notes – all changes will be seen only by you.

Personal tabs can be accessed anytime from any device, even offline.
Learn more »
Give kudos to tab author, rate the tab!
1 2 3 4 5
comments
print report bad tab
3 comments total.
0 reply
ravenouscabbage 10 Oct 18, 2008 09:57 AM

riff 1 sounds good... riff 2 doesnt. maybe cuz im playing it on a guitar...

0 reply
AKGeo 10 Jul 06, 2013 01:09 AM

It sounds like on riff 2, the bars are actually slides up/down on the same string, like 6666\0000/6666, etc., with 8 notes per bar as opposed to your 6 notes on A and 7 on E. And the second bar on the second line in riff 2 has a little more flavor than just straight 6's.

Don't blame me, you invited critiques with your arrogance, and my ears are quite clean.

0 reply
AKGeo 10 Jul 06, 2013 01:17 AM

G|-----------------------------------------------------------------------------|
D|-----------------------------------------------------------------------------|
A|--6-6-6-6-6-6-6-6\0-0-0-0-0-0-0-0--6-6-6-6-6-6-6-6-\0-0-0-0-6-6-0-0---------|
E|----------------------------------------------------------------------------|

G|----------------------------------------------------------------------------|
D|----------------------------------------------------------------------------|
A|-6-6-6-6-6-6-6-6\0-0-0-0-6-0-6-0-----------------------------------------------|
E|-----------------------------------2-2-2-2-4-4-4-4-5-5-5-5-5-5-5-5------------|


That's what I hear.

guest
You may want to rate the tab now too:
select rating
Wanna post a correction for this tab? Suggest correction