Oops, an error
Loading. Please wait.

Sweet Road tab

version 3
version 3

Whole song

  • Tuning is open D and has parts missing from the other version.
64 views 6 this week
no commentswrite comment
1 2 3 4 5
3 more votes to show rating
add to favorites
×
Save as Personal and add changes to this tab that will be seen only by you. Learn more ›
×
You can save this tab as Personal to edit and correct it or add notes. All changes will be seen only by you. Learn more »
launch autoscroll
font size
0
reset
how to read this tab
guitar tuner
edit
Autoscroll
slow
fast
+/-
esc
set tempo
stop
About this tab version
Tuning is open D and has parts missing from the other version. Was this info helpful? Yes No
[Intro]
[Guitar 1]
(The version already posted on this site is great, but I prefer to play all the songs from this album
in Open D tuning as most of them are performed that way. This song has a Capo on the 2nd fret.)

D |------0-----0-----0--2---2----------------------------------------------|
A |----3-----3-----2------2---2--------------------------------------------|
F#|--3-----0-----1---------------------------------------------------------|
D |------------------------------------------------------------------------|
A |------------------------------------------------------------------------|
D |------------------------------------------------------------------------| (4x)(then the second riff starts)

[Guitar 2]
D |------------------------------------------------------------------------|
A |------------------------------------------------------------------------|
F#|------------------------------------------------------------------------|
D |------------------------------------------------------------------------|
A |-9--9---------7-7---5-5-5-----------------------------------------------|
D |-------10-10------------------------------------------------------------| (8x)(first riff is still going)

[Bridge]
I'm troubled in a patchy problem...
D |--7-7---7-7-7------3-3--3-3-3-------------------------------------------|
A |--7-7---7-7-7------3-3--3-3-3-------------------------------------------|
F#|--6-6---6-6-6------3-3--3-3-3-------------------------------------------|
D |--7-7---7-7-7------4-4--4-4-4-------------------------------------------|
A |-------------------5-5--5-5-5-------------------------------------------|
D |------------------------------------------------------------------------| (4x)

I-uh found sweet road!
D |--3-3---3-3-3------3-3--3-3-3-------------------------------------------|
A |--3-3---3-3-3------3-3--3-3-3-------------------------------------------|
F#|--3-3---3-3-3------3-3--3-3-3-------------------------------------------|
D |--4-4---4-4-4------4-4--4-4-4-------------------------------------------|
A |--5-5---5-5-5------5-5--5-5-5-------------------------------------------|
D |------------------------------------------------------------------------| (4x)

[Outro]
It started like a stone...
D |------0-----0-----0--2---2----------------------------------------------|
A |----3-----3-----2------2---2--------------------------------------------|
F#|--3-----0-----1---------------------------------------------------------|
D |------------------------------------------------------------------------|
A |------------------------------------------------------------------------|
D |------------------------------------------------------------------------| (3x)

Then end on this
D |------0-----0---0-------------------------------------------------------|
A |----3-----3-----2-------------------------------------------------------|
F#|--3-----0-------1-------------------------------------------------------|
D |----------------0-------------------------------------------------------|
A |------------------------------------------------------------------------|
D |------------------------------------------------------------------------|

            
            
Suggest correction
Creating personal tab
Creating personal tab
You can edit any tab online and save it as your Personal.

You can edit, replace or remove any tab part or add personal notes – all changes will be seen only by you.

Personal tabs can be accessed anytime from any device, even offline.
Learn more »
Give kudos to tab author, rate the tab!
1 2 3 4 5
comments
print report bad tab
guest
You may want to rate the tab now too:
select rating
Wanna post a correction for this tab? Suggest correction