Oops, an error
Loading. Please wait.

Sweet Road tab

version 2
version 2

Whole song

  • Tuning is open D and has parts missing from the other version.
9,252 views 42 this week
1 commentread comment
1 2 3 4 5
x 6
add to favorites
×
Save as Personal and add changes to this tab that will be seen only by you. Learn more ›
×
You can save this tab as Personal to edit and correct it or add notes. All changes will be seen only by you. Learn more »
launch autoscroll
font size
0
reset
how to read this tab
guitar tuner
edit
Autoscroll
slow
fast
+/-
esc
set tempo
stop
Animal Collective
Sweet Road
Sung Tongs

Standard Tuning: E A D G B E


Intro:

e|----0------0-------0-----2--2------------|
b|--3------3-------2-----2--2--2-----------|
g|-4------1-------2------------------------|
d|-----------------------------------------|
a|-----------------------------------------|
E|-----------------------------------------|

Chorus:  it started like a stone....

Guitar 1

e|----0------0-------0-----2--2------------|
b|--3------3-------2-----2--2--2-----------|
g|-4------1-------2------------------------|
d|-----------------------------------------|
a|-----------------------------------------|
E|-----------------------------------------|

Guitar 2

e|-----------------------------------------|
b|-----------------------------------------|
g|-----------------------------------------|
d|-----------------------------------------|
a|-11-11---------9-9-----------------------|
E|--------10-10-------12-12-12-------------|


Verse: i'm tainted in a patchy problem...

Guitar 1

e|--7-7-7-7-7-7--0-0-0-0-0-0-0-------------|
b|--3-3-3-3-3-3--5-5-5-5-5-5-5-------------|
g|--4-4-4-4-4-4--4-4-4-4-4-4-4-------------|
d|---------------6-6-6-6-6-6-6-------------|
a|-----------------------------------------|
E|-----------------------------------------|

e|-----------------------------------------|
b|-----------------------------------------|
g|-----------------------------------------|
d|-9-9-9-9-9-9-----------------------------|
a|-------------7-7-7-7-7-7-----------------|
E|-----------------------------------------|




Bridge:  ahheyoo! I found SWEET ROAD!   ahheyoo! I found SWEET ROAD!  


e|---0--------------------------------------|
b|---5--------------------------------------|
g|---4--------------------------------------|
d|---6--------------------------------------|
a|---7--------------------------------------|
E|---x--------------------------------------|

strum


Ends on 

e|--------0-----------------------------------|
b|--------2-----------------------------------|
g|--------2-----------------------------------|
d|-------------------------------------------|
a|-------------------------------------------|
E|-------------------------------------------|


Lyrics:


wee, ~laughter~
hurry up, no
hurry up, huh

it started like a stone
i grew it out but then i rested it
i found sweet road
it came announced on the right
i left my purse then found the road

i'm tainted in a patchy problem
none can tell what i can tell ya
let them eagles have good times
it's a road and not a soda

i found sweet road,
i found sweet road

it started like a stone
i grew it out but then i rested it
i found sweet road
it came out of us on the right
i left my purse then found the road     

            
            
Suggest correction
Creating personal tab
Creating personal tab
You can edit any tab online and save it as your Personal.

You can edit, replace or remove any tab part or add personal notes – all changes will be seen only by you.

Personal tabs can be accessed anytime from any device, even offline.
Learn more »
comments
print report bad tab
1 comment total.
0 reply
jakeawashington 10 Aug 22, 2016 10:23 PM

e|-----------------------------------------|
b|-----------------------------------------|
g|-----------------------------------------|
d|-----------------------------------------|
a|-11-11---------9-9--12-12-12-------------|
E|--------10-10----------------------------|

The second time the chorus comes in it should be something like this

guest
Wanna post a correction for this tab? Suggest correction