Oops, an error
Loading. Please wait.

On Impulse tab

version 1
version 1

Whole song

Interactive

16,943 views 42 this week
3 commentsread comments
1 2 3 4 5
x 10
add to favorites
×
Save as Personal and add changes to this tab that will be seen only by you. Learn more ›
×
You can save this tab as Personal to edit and correct it or add notes. All changes will be seen only by you. Learn more »
launch autoscroll
font size
0
reset
how to read this tab
guitar tuner
edit
Autoscroll
slow
fast
+/-
esc
set tempo
stop
The song is in standard tuning for a seven-string guitar [B-E-A-D-G-B-E].

Use CTRL+F and type the name of the track to skip to a specific guitar part:

[GTR1] Guitar 1 (clean)

[GTR2] Guitar 2 (clean)

[GTR3] Guitar 3 (distortion)

[GTR4] Guitar 4 (distortion)

[GTR5] Guitar 5 (distortion)

---

[GTR1] Guitar 1 (clean)


                                  On Impulse                                    


                                                              Animals As Leaders


     E  E  E  E  E  E  E  E      E  E  E   E  E   E  E  E     E  E  E  E   E   
E|-----------------------7s--|--9-------------------------|-----------7------|
B|-----------7--------5------|-----9-----10---------9-----|--------7-----10--|
G|--------6--------6---------|--------9-------------------|-----9------------|
D|-----6--------4------------|---------------9p--7--------|--6---------------|
A|---------------------------|-------------------------9--|------------------|
E|--5------------------------|----------------------------|------------------|
B|---------------------------|----------------------------|------------------|

  E  E  E  E  E  E  E  E      E  E  E   E  E   E  E  E     E  E  E  E  E  E   
-----------------------7s--|--9-------------------------|--------------------|
-----------7--------5------|-----9-----10---------9-----|-----------6--------|
--------6--------6---------|--------9-------------------|-----6--------7-----|
-----6--------4------------|---------------9p--7--------|--------6--------9--|
---------------------------|-------------------------9--|--8-----------------|
--5------------------------|----------------------------|--------------------|
---------------------------|----------------------------|--------------------|

  E  E  E  E  E  E  E  E     E  E  E  E  E  E  E  E    
--5--------------------7--|-----------------------7s--|
-----6-----------6--------|-----------7--------5------|
--------6-----------6-----|--------6--------6---------|
-----------7--6-----------|-----6--------4------------|
--------------------------|---------------------------|
--------------------------|--5------------------------|
--------------------------|---------------------------|

  E  E  E   E  E   E  E  E     E  E  E  E   E     E  E  E  E  E  E  E  E    
--9-------------------------|-----------7------|-----------------------7s--|
-----9-----10---------9-----|--------7-----10--|-----------7--------5------|
--------9-------------------|-----9------------|--------6--------6---------|
---------------9p--7--------|--6---------------|-----6--------4------------|
-------------------------9--|------------------|---------------------------|
----------------------------|------------------|--5------------------------|
----------------------------|------------------|---------------------------|

  E  E  E   E  E   E  E  E     E  E  E  E  E  E     E  E  E  E  E  E  E  E   
--9-------------------------|--------------------|--5--------------------7--|
-----9-----10---------9-----|-----------6--------|-----6-----------6--------|
--------9-------------------|-----6--------7-----|--------6-----------6-----|
---------------9p--7--------|--------6--------9--|-----------7--6-----------|
-------------------------9--|--8-----------------|--------------------------|
----------------------------|--------------------|--------------------------|
----------------------------|--------------------|--------------------------|

  E  E  E  E  E  E  E     E  E  E  E  E  E  E     E  E  E  E  E  E  E   
--2--------------------|--2--------------------|--2--------------------|
-----------3-----5-----|-----------3-----5-----|-----------3-----5-----|
--------------4-----4--|--------------4-----4--|--------------4-----4--|
--------4--------------|--------4--------------|--------4--------------|
-----5-----------------|-----5-----------------|-----5-----------------|
-----------------------|-----------------------|-----------------------|
-----------------------|-----------------------|-----------------------|

  E  E  E  E  E  E  E     E  E  E  E  E  E  E     E  E  E  E  E  E  E   
--2--------------------|--2--------------------|--2--------------------|
-----------3-----5-----|-----------3-----5-----|-----------3-----5-----|
--------------4-----4--|--------------4-----4--|--------------4-----4--|
--------4--------------|--------4--------------|--------4--------------|
-----5-----------------|-----5-----------------|-----5-----------3-----|
-----------------------|--2--------------------|-----------------------|
-----------------------|-----------------2-----|--3--------0-----------|

  E  E  E  E  E  E   E     E  E  E  E  E  E   E     E  E  E  E  E  E   E   
--2---------------------|--2---------------------|--2---------------------|
-----------2-----3p--2--|-----------2-----3p--2--|-----------2-----3p--2--|
--------------2---------|--------------2---------|--------------2---------|
--------4---------------|--------4---------------|--------4---------------|
-----5------------------|-----5------------------|-----5------------------|
--3---------------------|--3---------------------|------------------------|
------------------------|------------------------|--0---------------------|

  E  E  E  E  E  E   E     E  E  E  E  E  E   E     E   E  E  E  E  E   E   
--2---------------------|--6---------------------|--7----------------------|
-----------2-----3p--2--|-----------6-----7p--6--|------------7-----8p--7--|
--------------2---------|--------------6---------|---------------7---------|
--------4---------------|--------6---------------|---------7---------------|
-----5------------------|-----9------------------|-----10------------------|
------------------------|------------------------|--0----------------------|
--0---------------------|--0---------------------|-------------------------|

  E   E   E   E   E  E  E      E   E   E   E   E  E  E   
--9------------------7-----|---9------------------7-----|
-------------10---------7--|--------------10---------7--|
-----------------11--------|------------------11--------|
---------11----------------|----------11----------------|
-----12--------------------|------12--------------------|
--9------------------------|----------------------------|
---------------------8-----|--10-----------0------8-----|

   E   E   E  E  E   E   E      E   E   E  E  E   E   E   
---9------------------------|---9------------------------|
--------------9-----10p--9--|--------------9-----10p--9--|
-----------------9----------|-----------------9----------|
----------11----------------|----------11----------------|
------12--------------------|------12--------------------|
--10------------------------|--10------------------------|
----------------------------|----------------------------|

  ^                               ^                             
  E    E    E   E   E   E   E     E    E    E   E   E   E   E   
--9----------------------------|--9----------------------------|
--9------------10------12------|--9------------10------12------|
--9----------------11------11--|--9----------------11------11--|
--9----------------------------|--9----------------------------|
--9h--12p--11------------------|--9h--12p--11------------------|
-------------------------------|-------------------------------|
-------------------------------|-------------------------------|

  ^                               ^                             
  E    E    E   E   E   E   E     E    E    E   E   E   E   E   
--9----------------------------|--9----------------------------|
--9------------10------12------|--9------------10------12------|
--9----------------11------11--|--9----------------11------11--|
--9----------------------------|--9----------------------------|
--9h--12p--11------------------|--9h--12p--11------------------|
-------------------------------|-------------------------------|
-------------------------------|-------------------------------|

  ^                               ^                             
  E    E    E   E   E   E   E     E    E    E   E   E   E   E   
--9----------------------------|--9----------------------------|
--9------------10------12------|--9------------10------12------|
--9----------------11------11--|--9----------------11------11--|
--9----------------------------|--9----------------------------|
--9h--12p--11------------------|--9h--12p--11------------------|
-------------------------------|-------------------------------|
-------------------------------|-------------------------------|

  ^                               ^                             
  E    E    E   E   E   E   E     E    E    E   E   E   E   E   
--9----------------------------|--9----------------------------|
--9------------10------12------|--9------------10------12------|
--9----------------11------11--|--9----------------11------11--|
--9----------------------------|--9----------------------------|
--9h--12p--11------------------|--9h--12p--11------------------|
-------------------------------|-------------------------------|
-------------------------------|-------------------------------|

   E  E  E   E   E    E   E   E   E   E      E   E   E   E   E  E  E  E   
|----------------------------------------|--12p--9-----------------------|
|--9--------10-------12----------14------|----------10--12---------------|
|------------------------11----------14--|------------------11-----9-----|
|----------------------------11----------|---9------------------------9--|
|-----9--8-----------------------12------|----------------------0--------|
|------------9p--7S--10------------------|-------------------------------|
|----------------------------------------|-------------------------------|

   E    E    E  E   E  E   E   E  E   E   4x
------------------------------------------|
----------------9-----------------9-------|
------(11)---------11-----10---------10---|
------------11----------------11----------|
-----------------------8------------------|
--10--------------------------------------|
------------------------------------------|

  E.  E.  E.  Q.     S H.               E.  E.   Q.     E.  E.  E.  E.   
------0-----------------------------|-------0---------------0-------5---|
--9-------9-------------------------|--12-------12------7-------7-------|
--------------6---------------------|-----------------------------------|
--7------------------9-L------------|--11---------------6---------------|
--9---------------------------------|--12---------------7---------------|
------------------------------------|-----------------------------------|
------------------------------------|-----------------------------------|

                                                  ^                 
  E.  E.  E.  Q.     S H           E.  E.  Q.     E.  E.  E.   E.   
------0-------------------------|------0--------------0------------|
--9-------9------------L--------|--7-------7------7-------7---10---|
--------------6-----------------|--6--------------6----------------|
---------------------9----------|-----------------6----------------|
--9-----------------------------|--5--------------7----------------|
--------------------------------|----------------------------------|
--------------------------------|----------------------------------|

  E.  E.  E.  Q.     S H.               E.  E.   Q.     E.  E.  E.   E.   
------0-----------------------------|-------0---------------0------------|
--9-------9-------------------------|--12-------12------7-------7---10---|
--------------6---------------------|------------------------------------|
---------------------9-L------------|------------------------------------|
--9---------------------------------|--12---------------7----------------|
------------------------------------|------------------------------------|
------------------------------------|------------------------------------|

                                                  ^                 
  E.  E.  E.  Q.     S H           E.  E.  Q.     E.  E.  E.   E.   
------0-------------------------|------0--------------0------------|
--9-------9------------L--------|--7-------7------7-------7---10---|
--------------6-----------------|--6--------------6----------------|
---------------------9----------|-----------------6----------------|
--9-----------------------------|--5--------------7----------------|
--------------------------------|----------------------------------|
--------------------------------|----------------------------------|

  E.  E.  E.  Q.     S H.              E  E  E  E  E  E  E  E    
------0-----------------------------|-----------------------7s--|
--9-------9-------------------------|-----------7--------5------|
--------------6---------------------|--------6--------6---------|
---------------------9-L------------|-----6--------4------------|
--9---------------------------------|---------------------------|
------------------------------------|--5------------------------|
------------------------------------|---------------------------|

  E  E  E   E  E   E  E  E     E  E  E  E   E     E  E  E  E  E  E  E  E    
--9-------------------------|-----------7------|-----------------------7s--|
-----9-----10---------9-----|--------7-----10--|-----------7--------5------|
--------9-------------------|-----9------------|--------6--------6---------|
---------------9p--7--------|--6---------------|-----6--------4------------|
-------------------------9--|------------------|---------------------------|
----------------------------|------------------|--5------------------------|
----------------------------|------------------|---------------------------|

  E  E  E   E  E   E  E  E     E  E  E  E  E  E     E  E  E  E  E  E  E  E   
--9-------------------------|--------------------|--5--------------------7--|
-----9-----10---------9-----|-----------6--------|-----6-----------6--------|
--------9-------------------|-----6--------7-----|--------6-----------6-----|
---------------9p--7--------|--------6--------9--|-----------7--6-----------|
-------------------------9--|--8-----------------|--------------------------|
----------------------------|--------------------|--------------------------|
----------------------------|--------------------|--------------------------|

  E  E  E  E  E  E  E  E      E  E  E   E  E   E  E  E     E  E  E  E   E   
-----------------------7s--|--9-------------------------|-----------7------|
-----------7--------5------|-----9-----10---------9-----|--------7-----10--|
--------6--------6---------|--------9-------------------|-----9------------|
-----6--------4------------|---------------9p--7--------|--6---------------|
---------------------------|-------------------------9--|------------------|
--5------------------------|----------------------------|------------------|
---------------------------|----------------------------|------------------|

  E  E  E  E  E  E  E  E      E  E  E   E  E   E  E  E     E  E  E  E  E  E   
-----------------------7s--|--9-------------------------|--------------------|
-----------7--------5------|-----9-----10---------9-----|-----------6--------|
--------6--------6---------|--------9-------------------|-----6--------7-----|
-----6--------4------------|---------------9p--7--------|--------6--------9--|
---------------------------|-------------------------9--|--8-----------------|
--5------------------------|----------------------------|--------------------|
---------------------------|----------------------------|--------------------|

  E  E  E  E  E  E  E  E     E  E  E  E  E  E  E     E  E  E  E  E  E  E   
--5--------------------7--|--2--------------------|--2--------------------|
-----6-----------6--------|-----------3-----5-----|-----------3-----5-----|
--------6-----------6-----|--------------4-----4--|--------------4-----4--|
-----------7--6-----------|--------4--------------|--------4--------------|
--------------------------|-----5-----------------|-----5-----------------|
--------------------------|-----------------------|-----------------------|
--------------------------|-----------------------|-----------------------|

  E  E  E  E  E  E  E     E  E  E  E  E  E  E     E  E  E  E  E  E  E   
--2--------------------|--2--------------------|--2--------------------|
-----------3-----5-----|-----------3-----5-----|-----------3-----5-----|
--------------4-----4--|--------------4-----4--|--------------4-----4--|
--------4--------------|--------4--------------|--------4--------------|
-----5-----------------|-----5-----------------|-----5-----------------|
-----------------------|-----------------------|--2--------------------|
-----------------------|-----------------------|-----------------2-----|

  E  E  E  E  E  E  E     E  E  E  E  E  E   E     E  E  E  E  E  E   E   
--2--------------------|--2---------------------|--2---------------------|
-----------3-----5-----|-----------2-----3p--2--|-----------2-----3p--2--|
--------------4-----4--|--------------2---------|--------------2---------|
--------4--------------|--------4---------------|--------4---------------|
-----5-----------3-----|-----5------------------|-----5------------------|
-----------------------|--3---------------------|--3---------------------|
--3--------0-----------|------------------------|------------------------|

  E  E  E  E  E  E   E     E  E  E  E  E  E   E     E  E  E  E  E  E   E   
--2---------------------|--2---------------------|--6---------------------|
-----------2-----3p--2--|-----------2-----3p--2--|-----------6-----7p--6--|
--------------2---------|--------------2---------|--------------6---------|
--------4---------------|--------4---------------|--------6---------------|
-----5------------------|-----5------------------|-----9------------------|
------------------------|------------------------|------------------------|
--0---------------------|--0---------------------|--0---------------------|

  E   E  E  E  E  E   E     E   E   E   E   E  E  E   
--7----------------------|--9------------------7-----|
------------7-----8p--7--|-------------10---------7--|
---------------7---------|-----------------11--------|
---------7---------------|---------11----------------|
-----10------------------|-----12--------------------|
--0----------------------|--9------------------------|
-------------------------|---------------------8-----|

   E   E   E   E   E  E  E      E   E   E  E  E   E   E   
---9------------------7-----|---9------------------------|
--------------10---------7--|--------------9-----10p--9--|
------------------11--------|-----------------9----------|
----------11----------------|----------11----------------|
------12--------------------|------12--------------------|
----------------------------|--10------------------------|
--10-----------0------8-----|----------------------------|

                               ^                             
   E   E   E  E  E   E   E     E    E    E   E   E   E   E   
---9------------------------|--9----------------------------|
--------------9-----10p--9--|--9------------10------12------|
-----------------9----------|--9----------------11------11--|
----------11----------------|--9----------------------------|
------12--------------------|--9h--12p--11------------------|
--10------------------------|-------------------------------|
----------------------------|-------------------------------|

  ^                               ^                             
  E    E    E   E   E   E   E     E    E    E   E   E   E   E   
--9----------------------------|--9----------------------------|
--9------------10------12------|--9------------10------12------|
--9----------------11------11--|--9----------------11------11--|
--9----------------------------|--9----------------------------|
--9h--12p--11------------------|--9h--12p--11------------------|
-------------------------------|-------------------------------|
-------------------------------|-------------------------------|

  ^                               ^                             
  E    E    E   E   E   E   E     E    E    E   E   E   E   E   
--9----------------------------|--9----------------------------|
--9------------10------12------|--9------------10------12------|
--9----------------11------11--|--9----------------11------11--|
--9----------------------------|--9----------------------------|
--9h--12p--11------------------|--9h--12p--11------------------|
-------------------------------|-------------------------------|
-------------------------------|-------------------------------|

  ^                               ^                             
  E    E    E   E   E   E   E     E    E    E   E   E   E   E   
--9----------------------------|--9----------------------------|
--9------------10------12------|--9------------10------12------|
--9----------------11------11--|--9----------------11------11--|
--9----------------------------|--9----------------------------|
--9h--12p--11------------------|--9h--12p--11------------------|
-------------------------------|-------------------------------|
-------------------------------|-------------------------------|

  ^                                                                      
  E    E    E   E   E   E   E     E  E  E   E   E    E   E   E   E   E   
--9----------------------------|----------------------------------------|
--9------------10------12------|--9--------10-------12----------14------|
--9----------------11------11--|------------------------11----------14--|
--9----------------------------|----------------------------11----------|
--9h--12p--11------------------|-----9--8-----------------------12------|
-------------------------------|------------9p--7S--10------------------|
-------------------------------|----------------------------------------|

   E   E   E   E   E  E  E  E      E    E    E  E   E  E   E   E  E   E   
--12p--9-----------------------|-----------------------------------------|
----------10--12---------------|----------------9-----------------9------|
------------------11-----9-----|------(11)---------11-----10---------10--|
---9------------------------9--|------------11----------------11---------|
----------------------0--------|-----------------------8-----------------|
-------------------------------|--10-------------------------------------|
-------------------------------|-----------------------------------------|

  E  E  E   E   E    E   E   E   E   E      E   E   E   E   E  E  E  E   
----------------------------------------|--12p--9-----------------------|
--9--------10-------12----------14------|----------10--12---------------|
------------------------11----------14--|------------------11-----9-----|
----------------------------11----------|---9------------------------9--|
-----9--8-----------------------12------|----------------------0--------|
------------9p--7S--10------------------|-------------------------------|
----------------------------------------|-------------------------------|

   E    E    E  E   E  E   E   E  E   E   
-----------------------------------------|
----------------9-----------------9------|
------(11)---------11-----10---------10--|
------------11----------------11---------|
-----------------------8-----------------|
--10-------------------------------------|
-----------------------------------------|

  E  E  E   E   E    E   E   E   E   E      E   E   E   E   E  E  E  E   
----------------------------------------|--12p--9-----------------------|
--9--------10-------12----------14------|----------10--12---------------|
------------------------11----------14--|------------------11-----9-----|
----------------------------11----------|---9------------------------9--|
-----9--8-----------------------12------|----------------------0--------|
------------9p--7S--10------------------|-------------------------------|
----------------------------------------|-------------------------------|

   E    E    E  E   E  E   E   E  E   E   
-----------------------------------------|
----------------9-----------------9------|
------(11)---------11-----10---------10--|
------------11----------------11---------|
-----------------------8-----------------|
--10-------------------------------------|
-----------------------------------------|

  E  E  E   E   E    E   E   E   E   E      E   E   E   E   E  E  E  E   
----------------------------------------|--12p--9-----------------------|
--9--------10-------12----------14------|----------10--12---------------|
------------------------11----------14--|------------------11-----9-----|
----------------------------11----------|---9------------------------9--|
-----9--8-----------------------12------|----------------------0--------|
------------9p--7S--10------------------|-------------------------------|
----------------------------------------|-------------------------------|

   E    E    E  E   E  E   E   E  E   E      E.  E.  E.  Q.     S H.            
-----------------------------------------|------0-----------------------------|
----------------9-----------------9------|--9-------9-------------------------|
------(11)---------11-----10---------10--|--------------6---------------------|
------------11----------------11---------|---------------------9-L------------|
-----------------------8-----------------|--9---------------------------------|
--10-------------------------------------|------------------------------------|
-----------------------------------------|------------------------------------|

   E.  E.   Q.     E.  E.  E.   E.     E.  E.  E.  Q.     S H         
-------0---------------0------------|------0-------------------------|
--12-------12------7-------7---10---|--9-------9------------L--------|
------------------------------------|--------------6-----------------|
------------------------------------|---------------------9----------|
--12---------------7----------------|--9-----------------------------|
------------------------------------|--------------------------------|
------------------------------------|--------------------------------|
                 ^                                                       
  E.  E.  Q.     E.  E.  E.   E.      E.  E.  E.  Q.     S H.            
------0--------------0------------|------0-----------------------------|
--7-------7------7-------7---10---|--9-------9-------------------------|
--6--------------6----------------|--------------6---------------------|
-----------------6----------------|---------------------9-L------------|
--5--------------7----------------|--9---------------------------------|
----------------------------------|------------------------------------|
----------------------------------|------------------------------------|

   E.  E.   Q.     E.  E.  E.   E.     E.  E.  E.  Q.     S H         
-------0---------------0------------|------0-------------------------|
--12-------12------7-------7---10---|--9-------9------------L--------|
------------------------------------|--------------6-----------------|
------------------------------------|---------------------9----------|
--12---------------7----------------|--9-----------------------------|
------------------------------------|--------------------------------|
------------------------------------|--------------------------------|

                 ^                                             
  E.  E.  Q.     E.  E.  E.   E.     E  E  E  E  E  E  E  E    
------0--------------0------------|-----------------------7s--|
--7-------7------7-------7---10---|-----------7--------5------|
--6--------------6----------------|--------6--------6---------|
-----------------6----------------|-----6--------4------------|
--5--------------7----------------|---------------------------|
----------------------------------|--5------------------------|
----------------------------------|---------------------------|

  E  E  E   E  E   E  E  E     E  E  E  E   E     E  E  E  E  E  E  E  E    
--9-------------------------|-----------7------|-----------------------7s--|
-----9-----10---------9-----|--------7-----10--|-----------7--------5------|
--------9-------------------|-----9------------|--------6--------6---------|
---------------9s--7--------|--6---------------|-----6--------4------------|
-------------------------9--|------------------|---------------------------|
----------------------------|------------------|--5------------------------|
----------------------------|------------------|---------------------------|

  E  E  E   E  E   E  E  E     E  E  E  E  E  E     E  E  E  E  E  E  E  E   
--9-------------------------|--------------------|--5--------------------7--|
-----9-----10---------9-----|-----------6--------|-----6-----------6--------|
--------9-------------------|-----6--------7-----|--------7--4--------6-----|
---------------9s--7--------|--------6--------9--|--------------6-----------|
-------------------------9--|--8-----------------|--------------------------|
----------------------------|--------------------|--------------------------|
----------------------------|--------------------|--------------------------|

  E  E  E  E  E  E  E  E      E  E  E   E  E   E  E  E     E  E  E  E   E   
-----------------------7s--|--9-------------------------|-----------7------|
-----------7--------5------|-----9-----10---------9-----|--------7-----10--|
--------6--------6---------|--------9-------------------|-----9------------|
-----6--------4------------|---------------9s--7--------|--6---------------|
---------------------------|-------------------------9--|------------------|
--5------------------------|----------------------------|------------------|
---------------------------|----------------------------|------------------|

  E  E  E  E  E  E  E  E      E  E  E   E  E   E  E  E     E  E  E  E  E  E   
-----------------------7s--|--9-------------------------|--------------------|
-----------7--------5------|-----9-----10---------9-----|-----------6--------|
--------6--------6---------|--------9-------------------|-----6--------7-----|
-----6--------4------------|---------------9s--7--------|--------6--------9--|
---------------------------|-------------------------9--|--8-----------------|
--5------------------------|----------------------------|--------------------|
---------------------------|----------------------------|--------------------|

  E  E  E  E  E  E  E  E      E.  E.  E.  Q.     S H.            
--5--------------------7--|------0-----------------------------|
-----6-----------6--------|--9-------9-------------------------|
--------7--4--------6-----|--------------6---------------------|
--------------6-----------|---------------------9-L------------|
--------------------------|--9---------------------------------|
--------------------------|------------------------------------|
--------------------------|------------------------------------|

   E.  E.   Q.     E.  E.  E.   E.     E.  E.  E.  Q.     S H         
-------0---------------0------------|------0-------------------------|
--12-------12------7-------7---10---|--9-------9------------L--------|
------------------------------------|--------------6-----------------|
------------------------------------|---------------------9----------|
--12---------------7----------------|--9-----------------------------|
------------------------------------|--------------------------------|
------------------------------------|--------------------------------|

                 ^                                                            
  E.  E.  Q.     E.  E.  E.   E.        S  S  S  S  S  S  S  S                
------0--------------0-------------|--19-19-------------------|------|------|
--7-------7------7-------7---10----|--------17-17-------------|------|------|
--6--------------6-----------------|--------------14-14-------|------|------|
-----------------6-----------------|--------------------18-18-|------|------|
--5--------------7-----------------|--------------------------|------|------|
-----------------------------------|--------------------------|------|------|
-----------------------------------|--------------------------|------|------|

------|------|------|------|------|------|------|------|------|------|------|
------|------|------|------|------|------|------|------|------|------|------|
------|------|------|------|------|------|------|------|------|------|------|
------|------|------|------|------|------|------|------|------|------|------|
------|------|------|------|------|------|------|------|------|------|------|
------|------|------|------|------|------|------|------|------|------|------|
------|------|------|------|------|------|------|------|------|------|------|

                       E  E  E   E  E    Q.     E   E   
------|------|------|---------------------------9------|
------|------|------|--9--------10------12---------10--|
------|------|------|----------------------------------|
------|------|------|---------------------------7------|
------|------|------|-----9--8-------------------------|
------|------|------|------------9--7S--10-------------|
------|------|------|----------------------------------|

   E   E   E   E   E  E  E  E     E   E   E  E  E  E  E  E  E  E   
--12p--9-----------------------|-------------------------------0--|
----------10--12---------------|-------------9--------6-----9-----|
------------------11-----9-----|-----(7)--6-----6--------6--------|
---9------------------------9--|--0-------------------------------|
----------------------0--------|-------------------8--------------|
-------------------------------|----------------------------------|
-------------------------------|----------------------------------|

  E  E  E   E  E    Q.     E   E      E   E   E   E   E  E  E  E   
---------------------------9------|--12p--9-----------------------|
--9--------10------12---------10--|----------10--12---------------|
----------------------------------|------------------11-----9-----|
---------------------------7------|---9------------------------9--|
-----9--8-------------------------|----------------------0--------|
------------9--7S--10-------------|-------------------------------|
----------------------------------|-------------------------------|

  E   E   E  E  E  E  E  E  E  E     E  E  E   E  E    Q.     E   E   
-------------------------------0--|---------------------------9------|
-------------9--------6-----9-----|--9--------10------12---------10--|
-----(7)--6-----6--------6--------|----------------------------------|
--0-------------------------------|---------------------------7------|
-------------------8--------------|-----9--8-------------------------|
----------------------------------|------------9--7S--10-------------|
----------------------------------|----------------------------------|

   E   E   E   E   E  E  E  E     E   E   E  E  E  E  E  E  E  E   
--12p--9-----------------------|-------------------------------0--|
----------10--12---------------|-------------9--------6-----9-----|
------------------11-----9-----|-----(7)--6-----6--------6--------|
---9------------------------9--|--0-------------------------------|
----------------------0--------|-------------------8--------------|
-------------------------------|----------------------------------|
-------------------------------|----------------------------------|

  E  E  E   E  E    Q.     E   E      E   E   E   E   E  E  E  E   
---------------------------9------|--12p--9-----------------------|
--9--------10------12---------10--|----------10--12---------------|
----------------------------------|------------------11-----9-----|
---------------------------7------|---9------------------------9--|
-----9--8-------------------------|----------------------0--------|
------------9--7S--10-------------|-------------------------------|
----------------------------------|-------------------------------|

  E   E   E  E  E  E  E  E  E  E                                                
-------------------------------0--|------|------|------|-------|------|------|
-------------9--------6-----9-----|------|------|------|-------|------|------|
-----(7)--6-----6--------6--------|------|------|------|-------|------|------|
--0-------------------------------|------|------|------|-------|------|------|
-------------------8--------------|------|------|------|-------|------|------|
----------------------------------|------|------|------|-------|------|------|
----------------------------------|------|------|------|-------|------|------|

                                                                              4x
------|------|------|------|------|------|------|------|------|------|-------|
------|------|------|------|------|------|------|------|------|------|-------|
------|------|------|------|------|------|------|------|------|------|-------|
------|------|------|------|------|------|------|------|------|------|-------|
------|------|------|------|------|------|------|------|------|------|-------|
------|------|------|------|------|------|------|------|------|------|-------|
------|------|------|------|------|------|------|------|------|------|-------|

------|------|------|------|------|------|------|------|------|------|------|
------|------|------|------|------|------|------|------|------|------|------|
------|------|------|------|------|------|------|------|------|------|------|
------|------|------|------|------|------|------|------|------|------|------|
------|------|------|------|------|------|------|------|------|------|------|
------|------|------|------|------|------|------|------|------|------|------|
------|------|------|------|------|------|------|------|------|------|------|

------|------|------|------|------|------|------|------|------|------|------|
------|------|------|------|------|------|------|------|------|------|------|
------|------|------|------|------|------|------|------|------|------|------|
------|------|------|------|------|------|------|------|------|------|------|
------|------|------|------|------|------|------|------|------|------|------|
------|------|------|------|------|------|------|------|------|------|------|
------|------|------|------|------|------|------|------|------|------|------|

------|------|
------|------|
------|------|
------|------|
------|------|
------|------|
------|------|

-----------------------------------------------------------------------------
-----------------------------------------------------------------------------

[GTR2] Guitar 2 (clean)

                                  On Impulse                                    


                                                              Animals As Leaders


E|-------|-------|-------|-------|-------|-------|-------|-------|-------|
B|-------|-------|-------|-------|-------|-------|-------|-------|-------|
G|-------|-------|-------|-------|-------|-------|-------|-------|-------|
D|-------|-------|-------|-------|-------|-------|-------|-------|-------|
A|-------|-------|-------|-------|-------|-------|-------|-------|-------|
E|-------|-------|-------|-------|-------|-------|-------|-------|-------|
C|-------|-------|-------|-------|-------|-------|-------|-------|-------|

-------|-------|-------|-------|-------|-------|-------|-------|-------|-------|
-------|-------|-------|-------|-------|-------|-------|-------|-------|-------|
-------|-------|-------|-------|-------|-------|-------|-------|-------|-------|
-------|-------|-------|-------|-------|-------|-------|-------|-------|-------|
-------|-------|-------|-------|-------|-------|-------|-------|-------|-------|
-------|-------|-------|-------|-------|-------|-------|-------|-------|-------|
-------|-------|-------|-------|-------|-------|-------|-------|-------|-------|

-------|-------|-------|-------|-------|-------|-------|-------|-------|-------|
-------|-------|-------|-------|-------|-------|-------|-------|-------|-------|
-------|-------|-------|-------|-------|-------|-------|-------|-------|-------|
-------|-------|-------|-------|-------|-------|-------|-------|-------|-------|
-------|-------|-------|-------|-------|-------|-------|-------|-------|-------|
-------|-------|-------|-------|-------|-------|-------|-------|-------|-------|
-------|-------|-------|-------|-------|-------|-------|-------|-------|-------|

-------|-------|-------|-------|-------|-------|-------|-------|-------|
-------|-------|-------|-------|-------|-------|-------|-------|-------|
-------|-------|-------|-------|-------|-------|-------|-------|-------|
-------|-------|-------|-------|-------|-------|-------|-------|-------|
-------|-------|-------|-------|-------|-------|-------|-------|-------|
-------|-------|-------|-------|-------|-------|-------|-------|-------|
-------|-------|-------|-------|-------|-------|-------|-------|-------|

                         4x                                                
|-------|-------|--------|-------|-------|-------|-------|-------|-------|
|-------|-------|--------|-------|-------|-------|-------|-------|-------|
|-------|-------|--------|-------|-------|-------|-------|-------|-------|
|-------|-------|--------|-------|-------|-------|-------|-------|-------|
|-------|-------|--------|-------|-------|-------|-------|-------|-------|
|-------|-------|--------|-------|-------|-------|-------|-------|-------|
|-------|-------|--------|-------|-------|-------|-------|-------|-------|

                           ^                    ^                 
                           W                    W                 
-------|-------|-------|--12----------------|---L----------------|
-------|-------|-------|---9----------------|---L----------------|
-------|-------|-------|--11----------------|---L----------------|
-------|-------|-------|--------------------|--------------------|
-------|-------|-------|--------------------|--------------------|
-------|-------|-------|--------------------|--------------------|
-------|-------|-------|--------------------|--------------------|

   ^               ^                                 ^                     
   H        E      W                   H.            Q       H.            
---L--------L--|--12----------------|--L-------------9----|--L------------|
---L--------L--|---9----------------|--L-------------9----|--L------------|
---L--------L--|--11----------------|--L------------10----|--L------------|
---------------|--------------------|---------------------|---------------|
---------------|--------------------|---------------------|---------------|
---------------|--------------------|---------------------|---------------|
---------------|--------------------|---------------------|---------------|

   ^                    ^                    ^                    ^            
   W                    W                    W                    H        E   
---7----------------|--12----------------|---L----------------|---L--------L--|
---9----------------|---9----------------|---L----------------|---L--------L--|
--10----------------|--11----------------|---L----------------|---L--------L--|
--------------------|--------------------|--------------------|---------------|
--------------------|--------------------|--------------------|---------------|
--------------------|--------------------|--------------------|---------------|
--------------------|--------------------|--------------------|---------------|

   ^                                 ^                        ^                 
   W                   H.            Q       H.               W                 
--12----------------|--L-------------9----|--L------------|---7----------------|
---9----------------|--L-------------9----|--L------------|---9----------------|
--11----------------|--L------------10----|--L------------|--10----------------|
--------------------|---------------------|---------------|--------------------|
--------------------|---------------------|---------------|--------------------|
--------------------|---------------------|---------------|--------------------|
--------------------|---------------------|---------------|--------------------|

-------|-------|-------|-------|-------|-------|-------|-------|-------|-------|
-------|-------|-------|-------|-------|-------|-------|-------|-------|-------|
-------|-------|-------|-------|-------|-------|-------|-------|-------|-------|
-------|-------|-------|-------|-------|-------|-------|-------|-------|-------|
-------|-------|-------|-------|-------|-------|-------|-------|-------|-------|
-------|-------|-------|-------|-------|-------|-------|-------|-------|-------|
-------|-------|-------|-------|-------|-------|-------|-------|-------|-------|

-------|-------|-------|-------|-------|-------|-------|-------|-------|-------|
-------|-------|-------|-------|-------|-------|-------|-------|-------|-------|
-------|-------|-------|-------|-------|-------|-------|-------|-------|-------|
-------|-------|-------|-------|-------|-------|-------|-------|-------|-------|
-------|-------|-------|-------|-------|-------|-------|-------|-------|-------|
-------|-------|-------|-------|-------|-------|-------|-------|-------|-------|
-------|-------|-------|-------|-------|-------|-------|-------|-------|-------|

-------|-------|-------|-------|-------|-------|-------|-------|-------|-------|
-------|-------|-------|-------|-------|-------|-------|-------|-------|-------|
-------|-------|-------|-------|-------|-------|-------|-------|-------|-------|
-------|-------|-------|-------|-------|-------|-------|-------|-------|-------|
-------|-------|-------|-------|-------|-------|-------|-------|-------|-------|
-------|-------|-------|-------|-------|-------|-------|-------|-------|-------|
-------|-------|-------|-------|-------|-------|-------|-------|-------|-------|

                                                   W.               Q     
-------|-------|-------|-------|-------|-------|--4---------------------|
-------|-------|-------|-------|-------|-------|------------------------|
-------|-------|-------|-------|-------|-------|------------------------|
-------|-------|-------|-------|-------|-------|------------------------|
-------|-------|-------|-------|-------|-------|------------------------|
-------|-------|-------|-------|-------|-------|------------------------|
-------|-------|-------|-------|-------|-------|------------------------|

   E.   E.    Q.     E.   E.   E.   E.      E.   E.   W                E   
----------------------------------------|---------------------------------|
-------------------------------7---10---|--12---10---14----------------L--|
--11s---9S---11-------------------------|---------------------------------|
---9s---7S----9------9s---7S---9--------|---------------------------------|
----------------------------------------|---------------------------------|
----------------------------------------|---------------------------------|
----------------------------------------|---------------------------------|

                 ^                                           
  E.  E.  Q.     E.  E.  E.   E.      W.               Q     
------0--------------0------------|--4---------------------|
--7-------7------7-------7---10---|------------------------|
-----------------6----------------|------------------------|
-----------------6----------------|------------------------|
--5--------------7----------------|------------------------|
----------------------------------|------------------------|
----------------------------------|------------------------|

   E.   E.    Q.     E.   E.   E.   E.      E.   E.   W                E   
----------------------------------------|---------------------------------|
-------------------------------7---10---|--12---10---14-------------------|
--11s---9S---11-------------------------|---------------------------------|
---9s---7S----9------9s---7S---9--------|---------------------------------|
----------------------------------------|---------------------------------|
----------------------------------------|---------------------------------|
----------------------------------------|---------------------------------|

                 ^                                             
  E.  E.  Q.     E.  E.  E.   E.     E  E  E  E  E  E  E  E    
------0--------------0------------|-----------------------7s--|
--7-------7------7-------7---10---|-----------7--------5------|
-----------------6----------------|--------6--------6---------|
-----------------6----------------|-----6--------4------------|
--5--------------7----------------|---------------------------|
----------------------------------|--5------------------------|
----------------------------------|---------------------------|

  E  E  E   E  E   E  E  E     E  E  E  E   E     E  E  E  E  E  E  E  E    
--9-------------------------|-----------7------|-----------------------7s--|
-----9-----10---------9-----|--------7-----10--|-----------7--------5------|
--------9-------------------|-----9------------|--------6--------6---------|
---------------9s--7--------|--6---------------|-----6--------4------------|
-------------------------9--|------------------|---------------------------|
----------------------------|------------------|--5------------------------|
----------------------------|------------------|---------------------------|

  E  E  E   E  E   E  E  E     E  E  E  E  E  E     E  E  E  E  E  E  E  E   
--9-------------------------|--------------------|--5--------------------7--|
-----9-----10---------9-----|-----------6--------|-----6-----------6--------|
--------9-------------------|-----6--------7-----|--------7--4--------6-----|
---------------9s--7--------|--------6--------9--|--------------6-----------|
-------------------------9--|--8-----------------|--------------------------|
----------------------------|--------------------|--------------------------|
----------------------------|--------------------|--------------------------|

  E  E  E  E  E  E  E  E      E  E  E   E  E   E  E  E     E  E  E  E   E   
-----------------------7s--|--9-------------------------|-----------7------|
-----------7--------5------|-----9-----10---------9-----|--------7-----10--|
--------6--------6---------|--------9-------------------|-----9------------|
-----6--------4------------|---------------9s--7--------|--6---------------|
---------------------------|-------------------------9--|------------------|
--5------------------------|----------------------------|------------------|
---------------------------|----------------------------|------------------|

  E  E  E  E  E  E  E  E      E  E  E   E  E   E  E  E     E  E  E  E  E  E   
-----------------------7s--|--9-------------------------|--------------------|
-----------7--------5------|-----9-----10---------9-----|-----------6--------|
--------6--------6---------|--------9-------------------|-----6--------7-----|
-----6--------4------------|---------------9s--7--------|--------6--------9--|
---------------------------|-------------------------9--|--8-----------------|
--5------------------------|----------------------------|--------------------|
---------------------------|----------------------------|--------------------|

  E  E  E  E  E  E  E  E      W.               Q     
--5--------------------7--|--4---------------------|
-----6-----------6--------|------------------------|
--------7--4--------6-----|------------------------|
--------------6-----------|------------------------|
--------------------------|------------------------|
--------------------------|------------------------|
--------------------------|------------------------|

   E.   E.    Q.     E.   E.   E.   E.      E.   E.   W                E   
----------------------------------------|---------------------------------|
-------------------------------7---10---|--12---10---14-------------------|
--11s---9S---11-------------------------|---------------------------------|
---9s---7S----9------9s---7S---9--------|---------------------------------|
----------------------------------------|---------------------------------|
----------------------------------------|---------------------------------|
----------------------------------------|---------------------------------|

                 ^                                                             
  E.  E.  Q.     E.  E.  E.   E.        S  S  S  S S S S S                     
------0--------------0-------------|----------------------|----|------|------|
--7-------7------7-------7---10----|----------------------|----|------|------|
-----------------6-----------------|--14-14---------------|----|------|------|
-----------------6-----------------|--------18-18---------|----|------|------|
--5--------------7-----------------|----------------------|----|------|------|
-----------------------------------|----------------------|----|------|------|
-----------------------------------|----------------------|----|------|------|

------|------|------|------|------|------|------|------|------|------|------|
------|------|------|------|------|------|------|------|------|------|------|
------|------|------|------|------|------|------|------|------|------|------|
------|------|------|------|------|------|------|------|------|------|------|
------|------|------|------|------|------|------|------|------|------|------|
------|------|------|------|------|------|------|------|------|------|------|
------|------|------|------|------|------|------|------|------|------|------|

                E  E  E   E  E    Q.     E   E   
------|------|---------------------------9------|
------|------|--9--------10------12---------10--|
------|------|----------------------------------|
------|------|---------------------------7------|
------|------|-----9--8-------------------------|
------|------|------------9--7S--10-------------|
------|------|----------------------------------|

   E   E   E   E   E  E  E  E     E   E   E  E  E  E  E  E  E  E   
--12p--9-----------------------|-------------------------------0--|
----------10--12---------------|-------------9--------6-----9-----|
------------------11-----9-----|-----(7)--6-----6--------6--------|
---9------------------------9--|--0-------------------------------|
----------------------0--------|-------------------8--------------|
-------------------------------|----------------------------------|
-------------------------------|----------------------------------|

  E  E  E   E  E    Q.     E   E      E   E   E   E   E  E  E  E   
---------------------------9------|--12p--9-----------------------|
--9--------10------12---------10--|----------10--12---------------|
----------------------------------|------------------11-----9-----|
---------------------------7------|---9------------------------9--|
-----9--8-------------------------|----------------------0--------|
------------9--7S--10-------------|-------------------------------|
----------------------------------|-------------------------------|

  E   E   E  E  E  E  E  E  E  E     E  E  E   E  E    Q.     E   E   
-------------------------------0--|---------------------------9------|
-------------9--------6-----9-----|--9--------10------12---------10--|
-----(7)--6-----6--------6--------|----------------------------------|
--0-------------------------------|---------------------------7------|
-------------------8--------------|-----9--8-------------------------|
----------------------------------|------------9--7S--10-------------|
----------------------------------|----------------------------------|

   E   E   E   E   E  E  E  E     E   E   E  E  E  E  E  E  E  E   
--12p--9-----------------------|-------------------------------0--|
----------10--12---------------|-------------9--------6-----9-----|
------------------11-----9-----|-----(7)--6-----6--------6--------|
---9------------------------9--|--0-------------------------------|
----------------------0--------|-------------------8--------------|
-------------------------------|----------------------------------|
-------------------------------|----------------------------------|

  E  E  E   E  E    Q.     E   E      E   E   E   E   E  E  E  E   
---------------------------9------|--12p--9-----------------------|
--9--------10------12---------10--|----------10--12---------------|
----------------------------------|------------------11-----9-----|
---------------------------7------|---9------------------------9--|
-----9--8-------------------------|----------------------0--------|
------------9--7S--10-------------|-------------------------------|
----------------------------------|-------------------------------|

  E   E   E  E  E  E  E  E  E  E                                                
-------------------------------0--|-----|-----|-----|------|-----|-----|-----|
-------------9--------6-----9-----|-----|-----|-----|------|-----|-----|-----|
-----(7)--6-----6--------6--------|-----|-----|-----|------|-----|-----|-----|
--0-------------------------------|-----|-----|-----|------|-----|-----|-----|
-------------------8--------------|-----|-----|-----|------|-----|-----|-----|
----------------------------------|-----|-----|-----|------|-----|-----|-----|
----------------------------------|-----|-----|-----|------|-----|-----|-----|

                                                             4x            
-----|-----|-----|-----|-----|-----|-----|-----|-----|------|-----|-----|
-----|-----|-----|-----|-----|-----|-----|-----|-----|------|-----|-----|
-----|-----|-----|-----|-----|-----|-----|-----|-----|------|-----|-----|
-----|-----|-----|-----|-----|-----|-----|-----|-----|------|-----|-----|
-----|-----|-----|-----|-----|-----|-----|-----|-----|------|-----|-----|
-----|-----|-----|-----|-----|-----|-----|-----|-----|------|-----|-----|
-----|-----|-----|-----|-----|-----|-----|-----|-----|------|-----|-----|

-----|-----|-----|-----|-----|-----|-----|-----|-----|-----|-----|-----|-----|
-----|-----|-----|-----|-----|-----|-----|-----|-----|-----|-----|-----|-----|
-----|-----|-----|-----|-----|-----|-----|-----|-----|-----|-----|-----|-----|
-----|-----|-----|-----|-----|-----|-----|-----|-----|-----|-----|-----|-----|
-----|-----|-----|-----|-----|-----|-----|-----|-----|-----|-----|-----|-----|
-----|-----|-----|-----|-----|-----|-----|-----|-----|-----|-----|-----|-----|
-----|-----|-----|-----|-----|-----|-----|-----|-----|-----|-----|-----|-----|

-----|-----|-----|-----|-----|-----|-----|-----|-----|
-----|-----|-----|-----|-----|-----|-----|-----|-----|
-----|-----|-----|-----|-----|-----|-----|-----|-----|
-----|-----|-----|-----|-----|-----|-----|-----|-----|
-----|-----|-----|-----|-----|-----|-----|-----|-----|
-----|-----|-----|-----|-----|-----|-----|-----|-----|
-----|-----|-----|-----|-----|-----|-----|-----|-----|

-----------------------------------------------------------------------------
-----------------------------------------------------------------------------

[GTR3] Guitar 3 (distortion)

                                  On Impulse                                    


                                                              Animals As Leaders


E|-------|-------|-------|-------|-------|-------|-------|-------|-------|
B|-------|-------|-------|-------|-------|-------|-------|-------|-------|
G|-------|-------|-------|-------|-------|-------|-------|-------|-------|
D|-------|-------|-------|-------|-------|-------|-------|-------|-------|
A|-------|-------|-------|-------|-------|-------|-------|-------|-------|
E|-------|-------|-------|-------|-------|-------|-------|-------|-------|
B|-------|-------|-------|-------|-------|-------|-------|-------|-------|

-------|-------|-------|-------|-------|-------|-------|-------|-------|-------|
-------|-------|-------|-------|-------|-------|-------|-------|-------|-------|
-------|-------|-------|-------|-------|-------|-------|-------|-------|-------|
-------|-------|-------|-------|-------|-------|-------|-------|-------|-------|
-------|-------|-------|-------|-------|-------|-------|-------|-------|-------|
-------|-------|-------|-------|-------|-------|-------|-------|-------|-------|
-------|-------|-------|-------|-------|-------|-------|-------|-------|-------|

-------|-------|-------|-------|-------|-------|-------|-------|-------|-------|
-------|-------|-------|-------|-------|-------|-------|-------|-------|-------|
-------|-------|-------|-------|-------|-------|-------|-------|-------|-------|
-------|-------|-------|-------|-------|-------|-------|-------|-------|-------|
-------|-------|-------|-------|-------|-------|-------|-------|-------|-------|
-------|-------|-------|-------|-------|-------|-------|-------|-------|-------|
-------|-------|-------|-------|-------|-------|-------|-------|-------|-------|

-------|-------|-------|-------|-------|-------|-------|-------|-------|
-------|-------|-------|-------|-------|-------|-------|-------|-------|
-------|-------|-------|-------|-------|-------|-------|-------|-------|
-------|-------|-------|-------|-------|-------|-------|-------|-------|
-------|-------|-------|-------|-------|-------|-------|-------|-------|
-------|-------|-------|-------|-------|-------|-------|-------|-------|
-------|-------|-------|-------|-------|-------|-------|-------|-------|

                         4x                                                
|-------|-------|--------|-------|-------|-------|-------|-------|-------|
|-------|-------|--------|-------|-------|-------|-------|-------|-------|
|-------|-------|--------|-------|-------|-------|-------|-------|-------|
|-------|-------|--------|-------|-------|-------|-------|-------|-------|
|-------|-------|--------|-------|-------|-------|-------|-------|-------|
|-------|-------|--------|-------|-------|-------|-------|-------|-------|
|-------|-------|--------|-------|-------|-------|-------|-------|-------|

-------|-------|-------|-------|-------|-------|-------|-------|-------|-------|
-------|-------|-------|-------|-------|-------|-------|-------|-------|-------|
-------|-------|-------|-------|-------|-------|-------|-------|-------|-------|
-------|-------|-------|-------|-------|-------|-------|-------|-------|-------|
-------|-------|-------|-------|-------|-------|-------|-------|-------|-------|
-------|-------|-------|-------|-------|-------|-------|-------|-------|-------|
-------|-------|-------|-------|-------|-------|-------|-------|-------|-------|

-------|-------|-------|-------|-------|-------|-------|-------|-------|-------|
-------|-------|-------|-------|-------|-------|-------|-------|-------|-------|
-------|-------|-------|-------|-------|-------|-------|-------|-------|-------|
-------|-------|-------|-------|-------|-------|-------|-------|-------|-------|
-------|-------|-------|-------|-------|-------|-------|-------|-------|-------|
-------|-------|-------|-------|-------|-------|-------|-------|-------|-------|
-------|-------|-------|-------|-------|-------|-------|-------|-------|-------|

          PM PM PM PM PM PM PM    PM PM PM PM PM PM PM    PM PM PM PM PM PM PM  
          E  E  E  E  E  E  E     E  E  E  E  E  E  E     E  E  E  E  E  E  E   
-------|-----------------------|-----------------------|-----------------------|
-------|-----------------------|-----------------------|-----------------------|
-------|-----------------------|-----------------------|-----------------------|
-------|-----------------------|-----------------5--5--|-----------------------|
-------|--4--4--4--4--4--------|-----------------3--3--|--5--5--5--5--5--5--5--|
-------|--2--2--2--2--2--4--4--|--5--5--5--2--2--------|--3--3--3--3--3--3--3--|
-------|-----------------2--2--|--3--3--3--0--0--------|-----------------------|

  PM PM PM PM PM PM PM       PM PM PM PM PM PM    PM PM PM PM PM PM PM  
  E  E  E  E  E  E  E     E  E  E  E  E  E  E     E  E  E  E  E  E  E   
-----------------------|-----------------------|-----------------------|
-----------------------|-----------------------|-----------------------|
-----------------------|-----------------------|-----------------------|
-----------------------|-----------------------|-----------------------|
--5--5--5--5--5--5--5--|-----------------------|-----------------------|
--3--3--3--3--3--3--3--|--2--2--2--2--2--2--2--|--2--2--2--2--2--2--2--|
-----------------------|--0--0--0--0--0--0--0--|--0--0--0--0--0--0--0--|

                                              PM PM PM        
  H        Q.        H        Q.        E  E  E  E  E  E  E   
------------------|------------------|-----------------------|
------------------|------------------|-----------------------|
------------------|------------------|-----------------------|
------------------|------------------|-----------------------|
------------------|------------------|--4--4--4--4--4--5--5--|
------------------|------------------|-----------------3--3--|
--0--------L------|--5--------L------|-----------------------|

     PM PM    PM    PM       PM PM PM PM PM PM       PM PM PM PM PM PM  
  E  E  E  E  E  E  E     E  E  E  E  E  E  E     E  E  E  E  E  E  E   
-----------------------|-----------------------|-----------------------|
-----------------------|-----------------------|-----------------------|
-----------------------|-----------------------|-----------------------|
-----------------------|--7--7--7--7--7--7--7--|--7--7--7--7--7--7--7--|
--7--7--7--------7--7--|--5--5--5--5--5--5--5--|--5--5--5--5--5--5--5--|
--5--5--5--7-----5--5--|-----------------------|-----------------------|
-----------0--0--------|-----------------------|-----------------------|

  E  E  E  E  E  E  E     E  E  E  E  E  E  E     E  E  E  E  E  E  E   
-----------------------|-----------------------|-----------------------|
-----------------------|-----------------------|-----------------------|
-----------------------|-----------------------|-----------------------|
-----------------------|-----------------------|-----------------------|
-----------------------|-----------------------|-----------------------|
--2--2--2--2--2--2--2--|--2--5--4--2--2--2--2--|-----------------------|
-----------------------|-----------------------|--3--3--3--3--3--3--3--|

  E  E  E  E  E  E  E     E  E  E  E  E  E  E     E  E  E  E  E  E  E   
-----------------------|-----------------------|-----------------------|
-----------------------|-----------------------|-----------------------|
-----------------------|-----------------------|-----------------------|
-----------------------|-----------------------|-----------------------|
-----------------------|-----------------------|-----------------------|
-----5--4--------------|--2--2--2--2--2--2--2--|--2--5--4--2--2--2--2--|
--0--------0--0--0--0--|-----------------------|-----------------------|

  E  E  E  E  E  E  E     E  E  E  E  E  E  E   
-----------------------|-----------------------|
-----------------------|-----------------------|
-----------------------|-----------------------|
-----------------------|-----------------------|
-----------------------|-----------------------|
-----------------------|-----5--4--------------|
--3--3--3--3--3--3--3--|--0--------0--0--0--0--|

   E    E   E    E  E   E    E   E    E  E   
--------------------------------------------|
--12h--14--12h--14-----12h--14--12h--14-----|
--13---14--13h--14-----13---14--13---14-----|
--------------------------------------------|
--------------------------------------------|
--------------------------------------------|
--------------------------------------------|

   E    E   E    E   E   E   E    E   
-------------------------------------|
--12h--14--12h--14--12--14--12h--14--|
--13---14--13---14--13--14--13---14--|
-------------------------------------|
-------------------------------------|
-------------------------------------|
-------------------------------------|

   E    E   E    E  E   E    E   E    E  E   
--------------------------------------------|
--12h--14--12h--14-----12h--14--12h--14-----|
--13---14--13h--14-----13---14--13---14-----|
--------------------------------------------|
--------------------------------------------|
--------------------------------------------|
--------------------------------------------|

   E    E   E    E  E   E    E   E    E  E   
--------------------------------------------|
--12h--14--12h--14-----12h--14--12h--14-----|
--13---14--13h--14-----13---14--13---14-----|
--------------------------------------------|
--------------------------------------------|
--------------------------------------------|
--------------------------------------------|

   E    E   E    E   E   E   E    E   
-------------------------------------|
--12h--14--12h--14--12--14--12h--14--|
--13---14--13---14--13--14--13---14--|
-------------------------------------|
-------------------------------------|
-------------------------------------|
-------------------------------------|

   E    E   E    E  E   E    E   E    E  E   
--------------------------------------------|
--12h--14--12h--14-----12h--14--12h--14-----|
--13---14--13h--14-----13---14--13---14-----|
--------------------------------------------|
--------------------------------------------|
--------------------------------------------|
--------------------------------------------|

   E    E   E    E  E   E    E   E    E  E   
--------------------------------------------|
--12h--14--12h--14-----12h--14--12h--14-----|
--13---14--13h--14-----13---14--13---14-----|
--------------------------------------------|
--------------------------------------------|
--------------------------------------------|
--------------------------------------------|

   E    E   E    E   E   E   E    E   
-------------------------------------|
--12h--14--12h--14--12--14--12h--14--|
--13---14--13---14--13--14--13---14--|
-------------------------------------|
-------------------------------------|
-------------------------------------|
-------------------------------------|

   E    E   E    E  E   E    E   E    E  E   
--------------------------------------------|
--12h--14--12h--14-----12h--14--12h--14-----|
--13---14--13h--14-----13---14--13---14-----|
--------------------------------------------|
--------------------------------------------|
--------------------------------------------|
--------------------------------------------|

   E    E   E    E  E   E    E   E    E  E   
--------------------------------------------|
--12h--14--12h--14-----12h--14--12h--14-----|
--13---14--13h--14-----13---14--13---14-----|
--------------------------------------------|
--------------------------------------------|
--------------------------------------------|
--------------------------------------------|

   E    E   E    E   E   E   E    E   
-------------------------------------|
--12h--14--12h--14--12--14--12h--14--|
--13---14--13---14--13--14--13---14--|
-------------------------------------|
-------------------------------------|
-------------------------------------|
-------------------------------------|

   E    E   E    E  E   E    E   E    E  E                                    
--------------------------------------------|-------|-------|-------|-------|
--12h--14--12h--14-----12h--14--12h--14-----|-------|-------|-------|-------|
--13---14--13h--14-----13---14--13---14-----|-------|-------|-------|-------|
--------------------------------------------|-------|-------|-------|-------|
--------------------------------------------|-------|-------|-------|-------|
--------------------------------------------|-------|-------|-------|-------|
--------------------------------------------|-------|-------|-------|-------|

                                          ^                 
                           E.  E.  Q.     E.  E.  E.   E.   
|-------|-------|-------|----------------------------------|
|-------|-------|-------|-----------------7---L---L----L---|
|-------|-------|-------|-----------------6---L---L----L---|
|-------|-------|-------|-----------------6---L---L----L---|
|-------|-------|-------|-----------------7---L---L----L---|
|-------|-------|-------|----------------------------------|
|-------|-------|-------|----------------------------------|

  H        H           W                   H        E     H        H         
--------------------|-------------------|--------------|--------------------|
--------------------|-------------------|--------------|--------------------|
--------------------|-------------------|--------------|--------------------|
--6--------4--------|--L----------------|--L-----------|--6--------4--------|
--7--------4--------|--L----------------|--L-----------|--7--------4--------|
--5--------2--------|--L----------------|--L-----------|--5--------2--------|
--------------------|-------------------|--------------|--------------------|

  H.           Q       H.              W                   H        H         
--------------------|---------------|-------------------|--------------------|
--------------------|---------------|-------------------|--------------------|
--------------------|---------------|-------------------|--------------------|
--L-----------------|---------------|-------------------|--6--------4--------|
--L------------5----|--L------------|--4----------------|--7--------4--------|
--L------------5----|--L------------|--1----------------|--5--------2--------|
---------------3----|--L------------|-------------------|--------------------|

  W                   H        E     H        H           H.           Q     
-------------------|--------------|--------------------|--------------------|
-------------------|--------------|--------------------|--------------------|
-------------------|--------------|--------------------|--------------------|
--L----------------|--L-----------|--6--------4--------|--L-----------------|
--L----------------|--L-----------|--7--------4--------|--L------------5----|
--L----------------|--L-----------|--5--------2--------|--L------------5----|
-------------------|--------------|--------------------|---------------3----|

  H.              W                                                          
---------------|-------------------|-------------------|-------------------|
---------------|-------------------|-------------------|-------------------|
---------------|-------------------|-------------------|-------------------|
---------------|-------------------|-------------------|-------------------|
--L------------|--4----------------|-------------------|-------------------|
--L------------|--1----------------|-------------------|-------------------|
--L------------|-------------------|-------------------|-------------------|

                                                 E  E  E  E  E  E  E   
-------------------|--------------------|----|-----------------------|
-------------------|--------------------|----|-----------------------|
-------------------|--------------------|----|-----------------------|
-------------------|--------------------|----|-----------------------|
-------------------|--------------------|----|-----------------------|
-------------------|--------------------|----|--2--2--2--2--2--2--2--|
-------------------|--------------------|----|-----------------------|

  E  E  E  E  E  E  E     E  E  E  E  E  E  E     E  E  E  E  E  E  E   
-----------------------|-----------------------|-----------------------|
-----------------------|-----------------------|-----------------------|
-----------------------|-----------------------|-----------------------|
-----------------------|-----------------------|-----------------------|
-----------------------|-----------------------|-----------------------|
--2--5--4--2--2--2--2--|-----------------------|-----5--4--------------|
-----------------------|--3--3--3--3--3--3--3--|--0--------0--0--0--0--|

  E  E  E  E  E  E  E     E  E  E  E  E  E  E     E  E  E  E  E  E  E   
-----------------------|-----------------------|-----------------------|
-----------------------|-----------------------|-----------------------|
-----------------------|-----------------------|-----------------------|
-----------------------|-----------------------|-----------------------|
-----------------------|-----------------------|-----------------------|
--2--2--2--2--2--2--2--|--2--5--4--2--2--2--2--|-----------------------|
-----------------------|-----------------------|--3--3--3--3--3--3--3--|

  E  E  E  E  E  E  E     E  E  E  E  E  E  E     E  E  E  E  E  E  E   
-----------------------|-----------------------|-----------------------|
-----------------------|-----------------------|-----------------------|
-----------------------|-----------------------|-----------------------|
-----------------------|-----------------------|-----------------------|
-----------------------|-----------------------|-----------------------|
-----5--4--------------|--2--2--2--2--2--2--2--|--2--5--4--2--2--2--2--|
--0--------0--0--0--0--|-----------------------|-----------------------|

  E  E  E  E  E  E  E     E  E  E  E  E  E  E     E  E  E  E  E  E  E   
-----------------------|-----------------------|-----------------------|
-----------------------|-----------------------|-----------------------|
-----------------------|-----------------------|-----------------------|
-----------------------|-----------------------|-----------------------|
-----------------------|-----------------------|-----------------------|
-----------------------|-----5--4--------------|--2--2--2--2--2--2--2--|
--3--3--3--3--3--3--3--|--0--------0--0--0--0--|-----------------------|

  E  E  E  E  E  E  E     E  E  E  E  E  E  E     E  E  E  E  E  E  E   
-----------------------|-----------------------|-----------------------|
-----------------------|-----------------------|-----------------------|
-----------------------|-----------------------|-----------------------|
-----------------------|-----------------------|-----------------------|
-----------------------|-----------------------|-----------------------|
--2--5--4--2--2--2--2--|-----------------------|-----5--4--------------|
-----------------------|--3--3--3--3--3--3--3--|--0--------0--0--0--0--|

  E  E  E  E  E  E  Q    Q       H        E  Q.        H        E  H        E   
------------------------------|---------------------|--------------------------|
------------------------------|---------------------|--------------------------|
------------------------------|--------------2------|--------------------------|
------------------------------|--------------2------|--------------------------|
-------------------------0----|--2-----------0------|--5-----------------------|
-----2--1---------------------|--2------------------|--5-----------1--------L--|
-----------2--0--3--L---------|--0--------L---------|--3--------L--------------|

   T                                                  
   E  E  E  E  E  E  Q    Q       H        E  Q.      
-------------------------------|---------------------|
-------------------------------|---------------------|
--13---------------------------|---------------------|
-------------------------------|--------------7------|
-------------------------------|--2-----------7------|
------2--1----------------5----|--2-----------5------|
------------2--0--3--L---------|--0--------L---------|

  H        E  H        E      E    E   E    E  E   E    E   E    E  E   
--------------------------|--------------------------------------------|
--------------------------|--12h--14--12h--14-----12h--14--12h--14-----|
--------------------------|--13---14--13h--14-----13---14--13---14-----|
--------------------------|--------------------------------------------|
--5-----------------------|--------------------------------------------|
--5-----------1--------L--|--------------------------------------------|
--3--------L--------------|--------------------------------------------|

   E    E   E    E   E   E   E    E   
-------------------------------------|
--12h--14--12h--14--12--14--12h--14--|
--13---14--13---14--13--14--13---14--|
-------------------------------------|
-------------------------------------|
-------------------------------------|
-------------------------------------|

   E    E   E    E  E   E    E   E    E  E   
--------------------------------------------|
--12h--14--12h--14-----12h--14--12h--14-----|
--13---14--13h--14-----13---14--13---14-----|
--------------------------------------------|
--------------------------------------------|
--------------------------------------------|
--------------------------------------------|

   E    E   E    E  E   E    E   E    E  E   
--------------------------------------------|
--12h--14--12h--14-----12h--14--12h--14-----|
--13---14--13h--14-----13---14--13---14-----|
--------------------------------------------|
--------------------------------------------|
--------------------------------------------|
--------------------------------------------|

   E    E   E    E   E   E   E    E   
-------------------------------------|
--12h--14--12h--14--12--14--12h--14--|
--13---14--13---14--13--14--13---14--|
-------------------------------------|
-------------------------------------|
-------------------------------------|
-------------------------------------|

   E    E   E    E  E   E    E   E    E  E      E  E  E  E  E   E  E  E   
--------------------------------------------|--2--0--------5s--7--------|
--12h--14--12h--14-----12h--14--12h--14-----|--------2--3---------5--0--|
--13---14--13h--14-----13---14--13---14-----|---------------------------|
--------------------------------------------|---------------------------|
--------------------------------------------|---------------------------|
--------------------------------------------|---------------------------|
--------------------------------------------|---------------------------|

  E   E  E  E   E   E     E  E  E  E  E   E  E  E   
---------9-----12------|--2--0--------5s--7--------|
--5s--7-----7------10--|--------2--3---------5--0--|
-----------------------|---------------------------|
-----------------------|---------------------------|
-----------------------|---------------------------|
-----------------------|---------------------------|
-----------------------|---------------------------|

  E   E  E  E   E   E  E   E  E   E       E   E  E  E   E   E  E   E  E   E   
---------9-----12---------14----------|---------9-----12---------14---------|
--5s--7-----7------10--9------9--10---|--5s--7-----7------10--9------9--10--|
--------------------------------------|-------------------------------------|
--------------------------------------|-------------------------------------|
--------------------------------------|-------------------------------------|
--------------------------------------|-------------------------------------|
--------------------------------------|-------------------------------------|

  E  E  E  E  E   E  E  E     E   E  E  E   E   E     E  E  E  E  E   E  E  E   
--2--0--------5s--7--------|---------9-----12------|--2--0--------5s--7--------|
--------2--3---------5--0--|--5s--7-----7------10--|--------2--3---------5--0--|
---------------------------|-----------------------|---------------------------|
---------------------------|-----------------------|---------------------------|
---------------------------|-----------------------|---------------------------|
---------------------------|-----------------------|---------------------------|
---------------------------|-----------------------|---------------------------|

  E   E  E  E   E   E  E   E  E   E     E  E  E  E  E   E  E  E   
---------9-----12---------14---------|--2--0--------5s--7--------|
--5s--7-----7------10--9------9--10--|--------2--3---------5--0--|
-------------------------------------|---------------------------|
-------------------------------------|---------------------------|
-------------------------------------|---------------------------|
-------------------------------------|---------------------------|
-------------------------------------|---------------------------|

  E   E  E  E   E   E     E  E  E  E  E   E  E  E   
---------9-----12------|--2--0--------5s--7--------|
--5s--7-----7------10--|--------2--3---------5--0--|
-----------------------|---------------------------|
-----------------------|---------------------------|
-----------------------|---------------------------|
-----------------------|---------------------------|
-----------------------|---------------------------|

  E   E  E  E   E   E  E   E   E   E       E  E   E   E   E    E   E  E   
---------9-----12---------14--12------|--14--0----------17s--19---------|
--5s--7-----7------10--9----------10--|---------14--15-----------17--0--|
--------------------------------------|---------------------------------|
--------------------------------------|---------------------------------|
--------------------------------------|---------------------------------|
--------------------------------------|---------------------------------|
--------------------------------------|---------------------------------|

   E    E   E   E   E   E      E  E   E   E   E    E   E  E   
-----------21------24------|--14--0----------17s--19---------|
--17s--19------19------22--|---------14--15-----------17--0--|
---------------------------|---------------------------------|
---------------------------|---------------------------------|
---------------------------|---------------------------------|
---------------------------|---------------------------------|
---------------------------|---------------------------------|

   E    E   E   E   E   E   4x   Q.      H        E     H.            
-----------21------24-------|--------------------0--|--L------------|
--17s--19------19------22---|--10-------------------|---------------|
----------------------------|----------13-----------|---------------|
----------------------------|-----------------------|---------------|
----------------------------|-----------------------|---------------|
----------------------------|-----------------------|---------------|
----------------------------|-----------------------|---------------|

   Q.      H        E     H.               Q.      H        E     H.            
--------------------0--|--L------------|--------------------0--|--L------------|
--10-------------------|---------------|--10-------------------|---------------|
----------16-----------|---------------|----------13-----------|---------------|
-----------------------|---------------|-----------------------|---------------|
-----------------------|---------------|-----------------------|---------------|
-----------------------|---------------|-----------------------|---------------|
-----------------------|---------------|-----------------------|---------------|

   Q.      H        E     H.               Q.      H        E     H.            
--------------------0--|--L------------|--------------------0--|--L------------|
--10-------------------|---------------|--10-------------------|---------------|
----------16-----------|---------------|----------13-----------|---------------|
-----------------------|---------------|-----------------------|---------------|
-----------------------|---------------|-----------------------|---------------|
-----------------------|---------------|-----------------------|---------------|
-----------------------|---------------|-----------------------|---------------|

   Q.      H        E     H.               Q.      H        E     H.            
--------------------0--|--L------------|--------------------0--|--L------------|
--10-------------------|---------------|--10-------------------|---------------|
----------16-----------|---------------|----------13-----------|---------------|
-----------------------|---------------|-----------------------|---------------|
-----------------------|---------------|-----------------------|---------------|
-----------------------|---------------|-----------------------|---------------|
-----------------------|---------------|-----------------------|---------------|

   Q.      H        E     H.               Q.      H        E     H.            
--------------------0--|--L------------|--------------------0--|--L------------|
--10-------------------|---------------|--10-------------------|---------------|
----------16-----------|---------------|----------13-----------|---------------|
-----------------------|---------------|-----------------------|---------------|
-----------------------|---------------|-----------------------|---------------|
-----------------------|---------------|-----------------------|---------------|
-----------------------|---------------|-----------------------|---------------|

   Q.      H        E     H.               Q.      H        E     H.            
--------------------0--|--L------------|--------------------0--|--L------------|
--10-------------------|---------------|--10-------------------|---------------|
----------16-----------|---------------|----------13-----------|---------------|
-----------------------|---------------|-----------------------|---------------|
-----------------------|---------------|-----------------------|---------------|
-----------------------|---------------|-----------------------|---------------|
-----------------------|---------------|-----------------------|---------------|

   Q.      H        E     H.             
--------------------0--|--L------------|
--10-------------------|---------------|
----------16-----------|---------------|
-----------------------|---------------|
-----------------------|---------------|
-----------------------|---------------|
-----------------------|---------------|


[GTR4] Guitar 4 (distortion)

                                  On Impulse                                    


                                                              Animals As Leaders


E|-------|-------|-------|-------|-------|-------|-------|-------|-------|
B|-------|-------|-------|-------|-------|-------|-------|-------|-------|
G|-------|-------|-------|-------|-------|-------|-------|-------|-------|
D|-------|-------|-------|-------|-------|-------|-------|-------|-------|
A|-------|-------|-------|-------|-------|-------|-------|-------|-------|
E|-------|-------|-------|-------|-------|-------|-------|-------|-------|
B|-------|-------|-------|-------|-------|-------|-------|-------|-------|

-------|-------|-------|-------|-------|-------|-------|-------|-------|-------|
-------|-------|-------|-------|-------|-------|-------|-------|-------|-------|
-------|-------|-------|-------|-------|-------|-------|-------|-------|-------|
-------|-------|-------|-------|-------|-------|-------|-------|-------|-------|
-------|-------|-------|-------|-------|-------|-------|-------|-------|-------|
-------|-------|-------|-------|-------|-------|-------|-------|-------|-------|
-------|-------|-------|-------|-------|-------|-------|-------|-------|-------|

-------|-------|-------|-------|-------|-------|-------|-------|-------|-------|
-------|-------|-------|-------|-------|-------|-------|-------|-------|-------|
-------|-------|-------|-------|-------|-------|-------|-------|-------|-------|
-------|-------|-------|-------|-------|-------|-------|-------|-------|-------|
-------|-------|-------|-------|-------|-------|-------|-------|-------|-------|
-------|-------|-------|-------|-------|-------|-------|-------|-------|-------|
-------|-------|-------|-------|-------|-------|-------|-------|-------|-------|

-------|-------|-------|-------|-------|-------|-------|-------|-------|
-------|-------|-------|-------|-------|-------|-------|-------|-------|
-------|-------|-------|-------|-------|-------|-------|-------|-------|
-------|-------|-------|-------|-------|-------|-------|-------|-------|
-------|-------|-------|-------|-------|-------|-------|-------|-------|
-------|-------|-------|-------|-------|-------|-------|-------|-------|
-------|-------|-------|-------|-------|-------|-------|-------|-------|

                         4x                                                
|-------|-------|--------|-------|-------|-------|-------|-------|-------|
|-------|-------|--------|-------|-------|-------|-------|-------|-------|
|-------|-------|--------|-------|-------|-------|-------|-------|-------|
|-------|-------|--------|-------|-------|-------|-------|-------|-------|
|-------|-------|--------|-------|-------|-------|-------|-------|-------|
|-------|-------|--------|-------|-------|-------|-------|-------|-------|
|-------|-------|--------|-------|-------|-------|-------|-------|-------|

-------|-------|-------|-------|-------|-------|-------|-------|-------|-------|
-------|-------|-------|-------|-------|-------|-------|-------|-------|-------|
-------|-------|-------|-------|-------|-------|-------|-------|-------|-------|
-------|-------|-------|-------|-------|-------|-------|-------|-------|-------|
-------|-------|-------|-------|-------|-------|-------|-------|-------|-------|
-------|-------|-------|-------|-------|-------|-------|-------|-------|-------|
-------|-------|-------|-------|-------|-------|-------|-------|-------|-------|

-------|-------|-------|-------|-------|-------|-------|-------|-------|-------|
-------|-------|-------|-------|-------|-------|-------|-------|-------|-------|
-------|-------|-------|-------|-------|-------|-------|-------|-------|-------|
-------|-------|-------|-------|-------|-------|-------|-------|-------|-------|
-------|-------|-------|-------|-------|-------|-------|-------|-------|-------|
-------|-------|-------|-------|-------|-------|-------|-------|-------|-------|
-------|-------|-------|-------|-------|-------|-------|-------|-------|-------|

-------|-------|-------|-------|-------|-------|-------|-------|-------|-------|
-------|-------|-------|-------|-------|-------|-------|-------|-------|-------|
-------|-------|-------|-------|-------|-------|-------|-------|-------|-------|
-------|-------|-------|-------|-------|-------|-------|-------|-------|-------|
-------|-------|-------|-------|-------|-------|-------|-------|-------|-------|
-------|-------|-------|-------|-------|-------|-------|-------|-------|-------|
-------|-------|-------|-------|-------|-------|-------|-------|-------|-------|

-------|-------|-------|-------|-------|-------|-------|-------|-------|-------|
-------|-------|-------|-------|-------|-------|-------|-------|-------|-------|
-------|-------|-------|-------|-------|-------|-------|-------|-------|-------|
-------|-------|-------|-------|-------|-------|-------|-------|-------|-------|
-------|-------|-------|-------|-------|-------|-------|-------|-------|-------|
-------|-------|-------|-------|-------|-------|-------|-------|-------|-------|
-------|-------|-------|-------|-------|-------|-------|-------|-------|-------|

           Q.      Q     Q.     E   E      E  E   E   E   E  E  E  E   
-------|------------------------9------|--12--9-----------------------|
-------|--/9------10----12---------10--|---------10--12---L-----------|
-------|-------------------------------|-----------------11-----9-----|
-------|--/6-------7-----9-------------|---------------------------9--|
-------|-------------------------------|---------------------0--------|
-------|-------------------------------|------------------------------|
-------|-------------------------------|------------------------------|

   E   E   E   E   E   E   E   E   E   E      Q.      Q     Q.     E   E   
--10--10--10--10--10--10--10--10--10--10--|------------------------9------|
--10--10--10--10--10---9---9---9---9---9--|--/9------10----12---------10--|
----------------------10--10--10--10--10--|-------------------------------|
-----------------------9---9---9---9---9--|--/6-------7-----9-------------|
------------------------------------------|-------------------------------|
------------------------------------------|-------------------------------|
------------------------------------------|-------------------------------|

   E  E   E   E   E  E  E  E      E   E   E   E   E   E   E   E   E   E   
--12--9-----------------------|--10--10--10--10--10--10--10--10--10--10--|
---------10--12---L-----------|--10--10--10--10--10---9---9---9---9---9--|
-----------------11-----9-----|----------------------10--10--10--10--10--|
---------------------------9--|-----------------------9---9---9---9---9--|
---------------------0--------|------------------------------------------|
------------------------------|------------------------------------------|
------------------------------|------------------------------------------|

   Q.      Q     Q.     E   E      E  E   E   E   E  E  E  E   
------------------------9------|--12--9-----------------------|
--/9------10----12---------10--|---------10--12---L-----------|
-------------------------------|-----------------11-----9-----|
--/6-------7-----9-------------|---------------------------9--|
-------------------------------|---------------------0--------|
-------------------------------|------------------------------|
-------------------------------|------------------------------|

   E   E   E   E   E   E   E   E   E   E      Q.      Q     Q.     E   E   
--10--10--10--10--10--10--10--10--10--10--|------------------------9------|
--10--10--10--10--10---9---9---9---9---9--|--/9------10----12---------10--|
----------------------10--10--10--10--10--|-------------------------------|
-----------------------9---9---9---9---9--|--/6-------7-----9-------------|
------------------------------------------|-------------------------------|
------------------------------------------|-------------------------------|
------------------------------------------|-------------------------------|

   E  E   E   E   E  E  E  E      E   E   E   E   E   E   E   E   E   E   
--12--9-----------------------|--10--10--10--10--10--10--10--10--10--10--|
---------10--12---L-----------|--10--10--10--10--10---9---9---9---9---9--|
-----------------11-----9-----|----------------------10--10--10--10--10--|
---------------------------9--|-----------------------9---9---9---9---9--|
---------------------0--------|------------------------------------------|
------------------------------|------------------------------------------|
------------------------------|------------------------------------------|

|-------|-------|-------|-------|-------|-------|-------|-------|-------|
|-------|-------|-------|-------|-------|-------|-------|-------|-------|
|-------|-------|-------|-------|-------|-------|-------|-------|-------|
|-------|-------|-------|-------|-------|-------|-------|-------|-------|
|-------|-------|-------|-------|-------|-------|-------|-------|-------|
|-------|-------|-------|-------|-------|-------|-------|-------|-------|
|-------|-------|-------|-------|-------|-------|-------|-------|-------|

-------|-------|-------|-------|-------|-------|-------|-------|-------|-------|
-------|-------|-------|-------|-------|-------|-------|-------|-------|-------|
-------|-------|-------|-------|-------|-------|-------|-------|-------|-------|
-------|-------|-------|-------|-------|-------|-------|-------|-------|-------|
-------|-------|-------|-------|-------|-------|-------|-------|-------|-------|
-------|-------|-------|-------|-------|-------|-------|-------|-------|-------|
-------|-------|-------|-------|-------|-------|-------|-------|-------|-------|

-------|-------|-------|
-------|-------|-------|
-------|-------|-------|
-------|-------|-------|
-------|-------|-------|
-------|-------|-------|
-------|-------|-------|

   Q    S  S  S  S  S  S  S  S  S  S  S  S  S  S  S  S  S S  S  S S  S  S  S  
|-------9--------------------------------------------------------------------|
|---------12-------12-10-----------------------------------------------------|
|------------13-11-------13-------13-11--------------------------------------|
|---------------------------14-11-------14-----------------------------------|
|------------------------------------------16-11s-9---------------9-14-11-16-|
|---------------------------------------------------12---------12------------|
|------------------------------------------------------14-9-14---------------|

                           |-----5-----|                                      
   S  S  S  S  S  S  S  S  S  S  S  S  S  S  S  S  S  S  S  S  S  S  S  S  S  
--------------------16-14-17-16-14-------14----------------------------------|
-----------------17----------------17-------17-------17-15-------------------|
-----11-16-13-18----------------------18-------18-16-------18-------18-16----|
--14----------------------------------------------------------19-16-------19-|
-----------------------------------------------------------------------------|
-----------------------------------------------------------------------------|
-----------------------------------------------------------------------------|

    11  11  11 11 11 11 11 11  11 11 11--- 3  3                        |--3--|  
    S   S   S  S  S  S  S  S   S  S  S  S  S  S  E.   S  S  S  E.   S  S  S  S  
------------------------------------------16-17-21------16-19-19---17-16--------
---------------------------------------17------------19------------------17-----
------------------------------------18--------------------------------------16--
--------------------------14s-16-19--------------------------------------------1
--(21)-16s-14----------16-------------------------------------------------------
--------------17-14-17----------------------------------------------------------
--------------------------------------------------------------------------------

   S S  S  S  S  S  S  S  S  S  S  S  S  S  S  S  S  S  S  S  S  S  S  S    
-------------------------------------------------19-19--------------------|
-------------------------------------17-17----17-------17-17--------------|
-------------------------14-14----14-------14----------------14-14--------|
---L---------18-18----18-------18----------------------------------18-18--|
----------16-------16-----------------------------------------------------|
-------14-----------------------------------------------------------------|
--------------------------------------------------------------------------|

            H         E   E   E      H           Q.        H         E  E  E   
-------|-------------------------|----------------------|---------------------|
-------|-------------------------|----------------------|---------------------|
-------|--/13~-----------14--13--|--\9~-----------------|---------------------|
-------|-------------------------|-------------/11------|--9~--------7--9-----|
-------|-------------------------|----------------------|---------------------|
-------|-------------------------|----------------------|---------------------|
-------|-------------------------|----------------------|---------------------|

   H         Q.          H          E   E   E      H           Q.      
--------------------|---------------L----------|----------------------|
--------------------|--------------------------|----------------------|
--/9~---------------|--/13~------------14--13--|--\9~-----------------|
-------------9------|--------------------------|-------------/11------|
--------------------|--------------------------|----------------------|
--------------------|--------------------------|----------------------|
--------------------|--------------------------|----------------------|

  E    E   E   H            H          Q.         E     H          E   E   
-------------------------|--------------------|---------------------------|
-------------------------|--------------------|---------------------------|
----------14-------------|--9~----------------|--13br--13~--------14--13--|
--9s--11------\7~--------|------------\6------|---------------------------|
-------------------------|--------------------|---------------------------|
-------------------------|--------------------|---------------------------|
-------------------------|--------------------|---------------------------|

    H          Q     S   S     Q     E   Q     E    E   
---------------------------|---------------------------|
--/17~---------------------|---------------------------|
--------------13----14p-13-|--------13-----------------|
---------------------------|--16--------16----14-------|
---------------------------|----------------------\14--|
---------------------------|---------------------------|
---------------------------|---------------------------|

   E   E   E   E    E   E   E       H          E   E   E   
-------------------------------|---------------L----------|
---------------------------17--|--------------------------|
-----------------------14------|--/13~------------14--13--|
--------------14s--16----------|--------------------------|
--12--11--12-------------------|--------------------------|
-------------------------------|--------------------------|
-------------------------------|--------------------------|

   H           Q.         H         E  E  E       H         Q.       
-----------------------|---------------------|----------------------|
-----------------------|---------------------|----------------------|
--\9~------------------|---------------------|--------------9~------|
-------------/11S------|--7~--------L--9--7--|----------------------|
-----------------------|---------------------|--/11~----------------|
-----------------------|---------------------|----------------------|
-----------------------|---------------------|----------------------|

  E  E   E  E  E  E  Q    Q       H        E  Q.      
-------------------------------|---------------------|
-------------------------------|---------------------|
-------------------------------|--------------2------|
-------------------------------|--------------2------|
--------------------------0----|--2-----------0------|
-----2p--1---------------------|--2------------------|
------------2--0--3--L---------|--0--------L---------|

  H        E  H        E     E  E   E  E  E  E  Q    Q     
--------------------------|-------------------------------|
--------------------------|-------------------------------|
--------------------------|-------------------------------|
--------------------------|-------------------------------|
--5--------5--4-----------|--------------------------0----|
--5--------5--1--------L--|-----2p--1---------------------|
--3--------L--------------|------------2--0--3--L---------|

  H        E  Q.        H        E  H        E   
---------------------|--------------------------|
---------------------|--------------------------|
--------------2------|--------------------------|
--------------2------|--------------------------|
--2-----------0------|--5-----------4-----------|
--2------------------|--5-----------1--------L--|
--0--------L---------|--3--------L--------------|

                                  PM PM PM PM PM           
  E  E   E  E  E  E  Q    Q       E  E  E  E  E  E  E  E   
-------------------------------|--------------------------|
-------------------------------|--------------------------|
-------------------------------|-----------------2--2--2--|
-------------------------------|-----------------2--2--2--|
--------------------------0----|--2--2--2--2--2--0--0--0--|
-----2p--1---------------------|--2--2--2--2--2-----------|
------------2--0--3--L---------|--0--0--0--0--0-----------|

  PM PM PM PM PM                                                
  E  E  E  E  E  E  E  E  E  E     E  E  E  E  E  E  Q    Q     
--------------------------------|------------------------------|
--------------------------------|------------------------------|
--------------------------------|------------------------------|
--------------------------------|------------------------------|
--5--5--5--5--5--4--4--4--4--4--|-------------------------0----|
--5--5--5--5--5--1--1--1--1--1--|-----2--1---------------------|
--3--3--3--3--3-----------------|-----------2--0--3--L---------|

  PM PM PM PM PM             PM PM PM PM PM                 
  E  E  E  E  E  E  E  E     E  E  E  E  E  E  E  E  E  E   
--------------------------|--------------------------------|
--------------------------|--------------------------------|
-----------------2--2--2--|--------------------------------|
-----------------2--2--2--|--------------------------------|
--2--2--2--2--2--0--0--0--|--5--5--5--5--5--4--4--4--4--4--|
--2--2--2--2--2-----------|--5--5--5--5--5--1--1--1--1--1--|
--0--0--0--0--0-----------|--3--3--3--3--3-----------------|

   E  E  E   E  E  E   E  E     E  E   E  E  E  E   
|----------------------------|---------------------|
|----------------------------|---------------------|
|----------------------------|---------------9-----|
|--------2--/9---------------|--------11--7-----7--|
|-----4---------7---------5--|--9--5---------------|
|--2---------------5h--7-----|---------------------|
|----------------------------|---------------------|

  E  E  E   E  E  E   E  E     E  E   E  E  E  E  E   E  E  E     
----------------------------|-----------------------------------|
----------------------------|-----------------------------------|
----------------------------|---------------9--------11---------|
--------2--/9---------------|--------11--7-----7--0------7--0---|
-----4---------7---------5--|--9--5-----------------------------|
--2---------------5h--7-----|-----------------------------------|
----------------------------|-----------------------------------|

  E  E   E  E  E  E  E   E  E  E     E  E  E   E  E  E   E  E   
----------------------------------|----------------------------|
----------------------------------|----------------------------|
---------------9--------11--------|----------------------------|
--------11--7-----7--0------7--0--|--------2--/9---------------|
--9--5----------------------------|-----4---------7---------5--|
----------------------------------|--2---------------5h--7-----|
----------------------------------|----------------------------|

  E  E   E  E  E  E     E  E  E   E  E  E   E  E   
---------------------|----------------------------|
---------------------|----------------------------|
---------------9-----|----------------------------|
--------11--7-----7--|--------2--/9---------------|
--9--5---------------|-----4---------7---------5--|
---------------------|--2---------------5h--7-----|
---------------------|----------------------------|

  E  E   E  E  E  E  E   E  E  E     E  E  E   E  E  E   E  E   
----------------------------------|----------------------------|
----------------------------------|----------------------------|
---------------9--------11--------|----------------------------|
--------11--7-----7--0------7--0--|--------2--/9---------------|
--9--5----------------------------|-----4---------7---------5--|
----------------------------------|--2---------------5h--7-----|
----------------------------------|----------------------------|

  E  E   E  E  E  E     E  E  E   E  E  E   E  E   
---------------------|----------------------------|
---------------------|----------------------------|
---------------9-----|----------------------------|
--------11--7-----7--|--------2--/9---------------|
--9--5---------------|-----4---------7---------5--|
---------------------|--2---------------5h--7-----|
---------------------|----------------------------|

  E  E   E  E  E  E  E   E  E  E      E  E  E  E  E   E  E  E   
----------------------------------|--2--0--------5s--7--------|
----------------------------------|--------2--3---------5--0--|
---------------9--------11--------|---------------------------|
--------11--7-----7--0------7--0--|---------------------------|
--9--5----------------------------|---------------------------|
----------------------------------|---------------------------|
----------------------------------|---------------------------|

  E   E  E  E   E   E     E  E  E  E  E   E  E  E     E   E  E  E   E   E   4x
---------9-----12------|--2--0--------5s--7--------|---------9-----12-------|
--5s--7-----7------10--|--------2--3---------5--0--|--5s--7-----7------10---|
-----------------------|---------------------------|------------------------|
-----------------------|---------------------------|------------------------|
-----------------------|---------------------------|------------------------|
-----------------------|---------------------------|------------------------|
-----------------------|---------------------------|------------------------|

   Q.      H        E     H.               Q.      H        E     H.            
--------------------0--|--L------------|--------------------0--|--L------------|
--10-------------------|---------------|--10-------------------|---------------|
----------13-----------|---------------|----------16-----------|---------------|
-----------------------|---------------|-----------------------|---------------|
-----------------------|---------------|-----------------------|---------------|
-----------------------|---------------|-----------------------|---------------|
-----------------------|---------------|-----------------------|---------------|

   Q.      H        E     H.               Q.      H        E     H.            
--------------------0--|--L------------|--------------------0--|--L------------|
--10-------------------|---------------|--10-------------------|---------------|
----------13-----------|---------------|----------16-----------|---------------|
-----------------------|---------------|-----------------------|---------------|
-----------------------|---------------|-----------------------|---------------|
-----------------------|---------------|-----------------------|---------------|
-----------------------|---------------|-----------------------|---------------|

   Q.      H        E     H.               Q.      H        E     H.            
--------------------0--|--L------------|--------------------0--|--L------------|
--10-------------------|---------------|--10-------------------|---------------|
----------13-----------|---------------|----------16-----------|---------------|
-----------------------|---------------|-----------------------|---------------|
-----------------------|---------------|-----------------------|---------------|
-----------------------|---------------|-----------------------|---------------|
-----------------------|---------------|-----------------------|---------------|

   Q.      H        E     H.               Q.      H        E     H.            
--------------------0--|--L------------|--------------------0--|--L------------|
--10-------------------|---------------|--10-------------------|---------------|
----------13-----------|---------------|----------16-----------|---------------|
-----------------------|---------------|-----------------------|---------------|
-----------------------|---------------|-----------------------|---------------|
-----------------------|---------------|-----------------------|---------------|
-----------------------|---------------|-----------------------|---------------|

   Q.      H        E     H.               Q.      H        E     H.            
--------------------0--|--L------------|--------------------0--|--L------------|
--10-------------------|---------------|--10-------------------|---------------|
----------13-----------|---------------|----------16-----------|---------------|
-----------------------|---------------|-----------------------|---------------|
-----------------------|---------------|-----------------------|---------------|
-----------------------|---------------|-----------------------|---------------|
-----------------------|---------------|-----------------------|---------------|

   Q.      H        E     H.               Q.      H        E   
--------------------0--|--L------------|--------------------0--|
--10-------------------|---------------|--10-------------------|
----------13-----------|---------------|----------16-----------|
-----------------------|---------------|-----------------------|
-----------------------|---------------|-----------------------|
-----------------------|---------------|-----------------------|
-----------------------|---------------|-----------------------|

  H.             
--L------------|
---------------|
---------------|
---------------|
---------------|
---------------|
---------------|


[GTR5] Guitar 5 (distortion)

                                  On Impulse                                    


                                                              Animals As Leaders


E|-------|-------|-------|-------|-------|-------|-------|-------|-------|
B|-------|-------|-------|-------|-------|-------|-------|-------|-------|
G|-------|-------|-------|-------|-------|-------|-------|-------|-------|
D|-------|-------|-------|-------|-------|-------|-------|-------|-------|
A|-------|-------|-------|-------|-------|-------|-------|-------|-------|
E|-------|-------|-------|-------|-------|-------|-------|-------|-------|
B|-------|-------|-------|-------|-------|-------|-------|-------|-------|

-------|-------|-------|-------|-------|-------|-------|-------|-------|-------|
-------|-------|-------|-------|-------|-------|-------|-------|-------|-------|
-------|-------|-------|-------|-------|-------|-------|-------|-------|-------|
-------|-------|-------|-------|-------|-------|-------|-------|-------|-------|
-------|-------|-------|-------|-------|-------|-------|-------|-------|-------|
-------|-------|-------|-------|-------|-------|-------|-------|-------|-------|
-------|-------|-------|-------|-------|-------|-------|-------|-------|-------|

-------|-------|-------|-------|-------|-------|-------|-------|-------|-------|
-------|-------|-------|-------|-------|-------|-------|-------|-------|-------|
-------|-------|-------|-------|-------|-------|-------|-------|-------|-------|
-------|-------|-------|-------|-------|-------|-------|-------|-------|-------|
-------|-------|-------|-------|-------|-------|-------|-------|-------|-------|
-------|-------|-------|-------|-------|-------|-------|-------|-------|-------|
-------|-------|-------|-------|-------|-------|-------|-------|-------|-------|

-------|-------|-------|-------|-------|-------|-------|-------|-------|
-------|-------|-------|-------|-------|-------|-------|-------|-------|
-------|-------|-------|-------|-------|-------|-------|-------|-------|
-------|-------|-------|-------|-------|-------|-------|-------|-------|
-------|-------|-------|-------|-------|-------|-------|-------|-------|
-------|-------|-------|-------|-------|-------|-------|-------|-------|
-------|-------|-------|-------|-------|-------|-------|-------|-------|

                         4x                                                
|-------|-------|--------|-------|-------|-------|-------|-------|-------|
|-------|-------|--------|-------|-------|-------|-------|-------|-------|
|-------|-------|--------|-------|-------|-------|-------|-------|-------|
|-------|-------|--------|-------|-------|-------|-------|-------|-------|
|-------|-------|--------|-------|-------|-------|-------|-------|-------|
|-------|-------|--------|-------|-------|-------|-------|-------|-------|
|-------|-------|--------|-------|-------|-------|-------|-------|-------|

-------|-------|-------|-------|-------|-------|-------|-------|-------|-------|
-------|-------|-------|-------|-------|-------|-------|-------|-------|-------|
-------|-------|-------|-------|-------|-------|-------|-------|-------|-------|
-------|-------|-------|-------|-------|-------|-------|-------|-------|-------|
-------|-------|-------|-------|-------|-------|-------|-------|-------|-------|
-------|-------|-------|-------|-------|-------|-------|-------|-------|-------|
-------|-------|-------|-------|-------|-------|-------|-------|-------|-------|

-------|-------|-------|-------|-------|-------|-------|-------|-------|-------|
-------|-------|-------|-------|-------|-------|-------|-------|-------|-------|
-------|-------|-------|-------|-------|-------|-------|-------|-------|-------|
-------|-------|-------|-------|-------|-------|-------|-------|-------|-------|
-------|-------|-------|-------|-------|-------|-------|-------|-------|-------|
-------|-------|-------|-------|-------|-------|-------|-------|-------|-------|
-------|-------|-------|-------|-------|-------|-------|-------|-------|-------|

-------|-------|-------|-------|-------|-------|-------|-------|-------|-------|
-------|-------|-------|-------|-------|-------|-------|-------|-------|-------|
-------|-------|-------|-------|-------|-------|-------|-------|-------|-------|
-------|-------|-------|-------|-------|-------|-------|-------|-------|-------|
-------|-------|-------|-------|-------|-------|-------|-------|-------|-------|
-------|-------|-------|-------|-------|-------|-------|-------|-------|-------|
-------|-------|-------|-------|-------|-------|-------|-------|-------|-------|

-------|-------|-------|-------|-------|-------|-------|-------|-------|-------|
-------|-------|-------|-------|-------|-------|-------|-------|-------|-------|
-------|-------|-------|-------|-------|-------|-------|-------|-------|-------|
-------|-------|-------|-------|-------|-------|-------|-------|-------|-------|
-------|-------|-------|-------|-------|-------|-------|-------|-------|-------|
-------|-------|-------|-------|-------|-------|-------|-------|-------|-------|
-------|-------|-------|-------|-------|-------|-------|-------|-------|-------|

                          Q    W                                 
-------|-------|-------|------------------------|-------|-------|
-------|-------|-------|------------------------|-------|-------|
-------|-------|-------|------------------------|-------|-------|
-------|-------|-------|------------------------|-------|-------|
-------|-------|-------|------------------------|-------|-------|
-------|-------|-------|------------------------|-------|-------|
-------|-------|-------|------------------------|-------|-------|

  Q    W                                   Q    W                         
------------------------|-------|-------|------------------------|-------|
------------------------|-------|-------|------------------------|-------|
------------------------|-------|-------|------------------------|-------|
------------------------|-------|-------|------------------------|-------|
------------------------|-------|-------|------------------------|-------|
------------------------|-------|-------|------------------------|-------|
------------------------|-------|-------|------------------------|-------|

          Q    W                                                           
-------|------------------------|-------|-------|-------|-------|-------|
-------|------------------------|-------|-------|-------|-------|-------|
-------|------------------------|-------|-------|-------|-------|-------|
-------|------------------------|-------|-------|-------|-------|-------|
-------|------------------------|-------|-------|-------|-------|-------|
-------|------------------------|-------|-------|-------|-------|-------|
-------|------------------------|-------|-------|-------|-------|-------|

                          H        H           W                   H        E   
-------|-------|-------|--------------------|-------------------|--------------|
-------|-------|-------|--------------------|-------------------|--------------|
-------|-------|-------|--------------------|-------------------|--------------|
-------|-------|-------|--6--------4--------|--L----------------|--L-----------|
-------|-------|-------|--7--------4--------|--L----------------|--L-----------|
-------|-------|-------|--5--------2--------|--L----------------|--L-----------|
-------|-------|-------|--------------------|-------------------|--------------|

  H        H           H.           Q       H.              W                 
--------------------|--------------------|---------------|-------------------|
--------------------|--------------------|---------------|-------------------|
--------------------|--------------------|---------------|-------------------|
--6--------4--------|--L-----------------|---------------|-------------------|
--7--------4--------|--L------------5----|--L------------|--4----------------|
--5--------2--------|--L------------5----|--L------------|--1----------------|
--------------------|---------------3----|--L------------|-------------------|

  H        H           W                   H        E     H        H         
--------------------|-------------------|--------------|--------------------|
--------------------|-------------------|--------------|--------------------|
--------------------|-------------------|--------------|--------------------|
--6--------4--------|--L----------------|--L-----------|--6--------4--------|
--7--------4--------|--L----------------|--L-----------|--7--------4--------|
--5--------2--------|--L----------------|--L-----------|--5--------2--------|
--------------------|-------------------|--------------|--------------------|

  H.           Q       H.              W                 
--------------------|---------------|-------------------|
--------------------|---------------|-------------------|
--------------------|---------------|-------------------|
--L-----------------|---------------|-------------------|
--L------------5----|--L------------|--4----------------|
--L------------5----|--L------------|--1----------------|
---------------3----|--L------------|-------------------|

   Q    S  S  S  S  S  S  S  S  S  S  S  S  S  S  S  S  S S  S  S S  S  S  S  
|-------9--------------------------------------------------------------------|
|---------12-------12-10-----------------------------------------------------|
|------------13-11-------13-------13-11--------------------------------------|
|---------------------------14-11-------14-----------------------------------|
|------------------------------------------16-11s-9---------------9-14-11-16-|
|---------------------------------------------------12---------12------------|
|------------------------------------------------------14-9-14---------------|

                           |-----5-----|                                      
   S  S  S  S  S  S  S  S  S  S  S  S  S  S  S  S  S  S  S  S  S  S  S  S  S  
--------------------16-14-17-16-14-------14----------------------------------|
-----------------17----------------17-------17-------17-15-------------------|
-----11-16-13-18----------------------18-------18-16-------18-------18-16----|
--14----------------------------------------------------------19-16-------19-|
-----------------------------------------------------------------------------|
-----------------------------------------------------------------------------|
-----------------------------------------------------------------------------|

    11  11  11 11 11 11 11 11  11 11 11--- 3  3                        |--3--|  
    S   S   S  S  S  S  S  S   S  S  S  S  S  S  E.   S  S  S  E.   S  S  S  S  
------------------------------------------16-17-21------16-19-19---17-16--------
---------------------------------------17------------19------------------17-----
------------------------------------18--------------------------------------16--
--------------------------14s-16-19--------------------------------------------1
--(21)-16s-14----------16-------------------------------------------------------
--------------17-14-17----------------------------------------------------------
--------------------------------------------------------------------------------

   S S  S  S  S  S  S  S  S  S  S  S  S  S  S  S  S  S  S  S  S  S  S  S    
-------------------------------------------------19-19--------------------|
-------------------------------------17-17----17-------17-17--------------|
-------------------------14-14----14-------14----------------14-14--------|
---L---------18-18----18-------18----------------------------------18-18--|
----------16-------16-----------------------------------------------------|
-------14-----------------------------------------------------------------|
--------------------------------------------------------------------------|

     |-3-|                                                                 
  E  S S S T T T T T T S      H         E   E   E      H           Q.      
---------------------x---|-------------------------|----------------------|
-------------------x-----|-------------------------|----------------------|
-----------------x-------|--/13~-----------14--13--|--\9~-----------------|
---------------x---------|-------------------------|-------------/11------|
-----x-------x-----------|-------------------------|----------------------|
-------x---x-------------|-------------------------|----------------------|
---------x---------------|-------------------------|----------------------|

  H         E  E  E      H         Q.          H          E   E   E   
---------------------|--------------------|---------------L----------|
---------------------|--------------------|--------------------------|
---------------------|--/9~---------------|--/13~------------14--13--|
--9~--------7--9-----|-------------9------|--------------------------|
---------------------|--------------------|--------------------------|
---------------------|--------------------|--------------------------|
---------------------|--------------------|--------------------------|

   H           Q.        E    E   E   H            H          Q.      
----------------------|-------------------------|--------------------|
----------------------|-------------------------|--------------------|
--\9~-----------------|----------14-------------|--9~----------------|
-------------/11------|--9s--11------\7~--------|------------\6------|
----------------------|-------------------------|--------------------|
----------------------|-------------------------|--------------------|
----------------------|-------------------------|--------------------|

   E     H          E   E       H          Q     S   S  
---------------------------|---------------------------|
---------------------------|--/17~---------------------|
--13br--13~--------14--13--|--------------13----14p-13-|
---------------------------|---------------------------|
---------------------------|---------------------------|
---------------------------|---------------------------|
---------------------------|---------------------------|

   Q     E   Q     E    E      E   E   E   E    E   E   E   
---------------------------|-------------------------------|
---------------------------|---------------------------17--|
--------13-----------------|-----------------------14------|
--16--------16----14-------|--------------14s--16----------|
----------------------\14--|--12--11--12-------------------|
---------------------------|-------------------------------|
---------------------------|-------------------------------|

    H          E   E   E      H           Q.         H         E  E  E   
---------------L----------|-----------------------|---------------------|
--------------------------|-----------------------|---------------------|
--/13~------------14--13--|--\9~------------------|---------------------|
--------------------------|-------------/11S------|--7~--------L--9--7--|
--------------------------|-----------------------|---------------------|
--------------------------|-----------------------|---------------------|
--------------------------|-----------------------|---------------------|

    H         Q.                                                               
----------------------|-------|-------|-------|-------|-------|-------|-------|
----------------------|-------|-------|-------|-------|-------|-------|-------|
--------------9~------|-------|-------|-------|-------|-------|-------|-------|
----------------------|-------|-------|-------|-------|-------|-------|-------|
--/11~----------------|-------|-------|-------|-------|-------|-------|-------|
----------------------|-------|-------|-------|-------|-------|-------|-------|
----------------------|-------|-------|-------|-------|-------|-------|-------|

-------|-------|-------|-------|-------|-------|-------|-------|--------|
-------|-------|-------|-------|-------|-------|-------|-------|--------|
-------|-------|-------|-------|-------|-------|-------|-------|--------|
-------|-------|-------|-------|-------|-------|-------|-------|--------|
-------|-------|-------|-------|-------|-------|-------|-------|--------|
-------|-------|-------|-------|-------|-------|-------|-------|--------|
-------|-------|-------|-------|-------|-------|-------|-------|--------|

          PM PM PM PM PM PM PM PM    PM PM PM PM PM PM  
          E  E  E  E  E  E  E  E     E  E  E  E  E  E   
-------|--------------------------|--------------------|
-------|--------------------------|--------------------|
-------|--------------------------|--------------------|
-------|--------------------------|--------------------|
-------|--4--4--4--7--7--7--------|--------------------|
-------|--2--2--2--5--5--5--2--2--|--2--2--2--2--5--5--|
-------|--------------------0--0--|--0--0--0--0--3--3--|

  PM PM PM PM PM PM PM PM    PM PM PM PM PM PM PM PM PM PM  
  E  E  E  E  E  E  E  E     E  E  E  E  E  E  E  E  E  E   
--------------------------|--------------------------------|
--------------------------|--------------------------------|
--------------------------|--------------------------------|
--------------------------|--------------------------------|
--4--4--4--7--7--7--------|--------------------------------|
--2--2--2--5--5--5--2--2--|--2--2--4--4--5--5--5--5--5--5--|
--------------------0--0--|--0--0--2--2--3--3--3--3--3--3--|

  PM PM PM PM PM PM PM PM    PM PM PM PM PM PM    PM PM PM PM PM PM PM PM  
  E  E  E  E  E  E  E  E     E  E  E  E  E  E     E  E  E  E  E  E  E  E   
--------------------------|--------------------|--------------------------|
--------------------------|--------------------|--------------------------|
--------------------------|--------------------|--------------------------|
--------------------------|--------------------|--------------------------|
--4--4--4--7--7--7--------|--------------------|--4--4--4--7--7--7--------|
--2--2--2--5--5--5--2--2--|--2--2--2--2--5--5--|--2--2--2--5--5--5--2--2--|
--------------------0--0--|--0--0--0--0--3--3--|--------------------0--0--|

  PM PM PM PM PM PM PM PM                                   
  E  E  E  E  E  E  E  E  Q        E  E  E  E  E  E  E  E   
-------------------------------|--------------------------|
-------------------------------|--------------------------|
-------------------------------|--------------------------|
-------------------------------|--------------------------|
-------------------------------|--------------------------|
--2--2--4--4--5--5--5--5-------|--2--2--2--2--2--2--2--2--|
--0--0--2--2--3--3--3--3-------|--------------------------|

  E  E  E  E  E  E     E  E  E  E  E  E  E  E     E  E  E  E  E  E   4x
--------------------|--------------------------|---------------------|
--------------------|--------------------------|---------------------|
--------------------|--------------------------|---------------------|
--------------------|--------------------------|---------------------|
--------------------|--------------------------|---------------------|
--5--4--2--2--2--2--|--------------------------|--5--4---------------|
--------------------|--3--3--3--3--3--3--3--0--|--------0--0--0--0---|

  E  E  E  E  E  E  E  E     E  E  E  E  E  E     E  E  E  E  E  E  E  E   
--------------------------|--------------------|--------------------------|
--------------------------|--------------------|--------------------------|
--------------------------|--------------------|--------------------------|
--------------------------|--------------------|--------------------------|
--------------------------|--------------------|--------------------------|
--2--2--2--2--2--2--2--2--|--5--4--2--2--2--2--|--------------------------|
--------------------------|--------------------|--3--3--3--3--3--3--3--0--|

                 Repeat and Fade                             
  E  E  E  E  E  E                  E  E  E  E  E  E  E  E   
---------------------------------|--------------------------|
---------------------------------|--------------------------|
---------------------------------|--------------------------|
---------------------------------|--------------------------|
---------------------------------|--------------------------|
--5--4---------------------------|--2--2--2--2--2--2--2--2--|
--------0--0--0--0---------------|--------------------------|

  E  E  E  E  E  E     E  E  E  E  E  E  E  E   
--------------------|--------------------------|
--------------------|--------------------------|
--------------------|--------------------------|
--------------------|--------------------------|
--------------------|--------------------------|
--5--4--2--2--2--2--|--------------------------|
--------------------|--3--3--3--3--3--3--3--0--|

                 Repeat and Fade                             
  E  E  E  E  E  E                  E  E  E  E  E  E  E  E   
---------------------------------|--------------------------|
---------------------------------|--------------------------|
---------------------------------|--------------------------|
---------------------------------|--------------------------|
---------------------------------|--------------------------|
--5--4---------------------------|--2--2--2--2--2--2--2--2--|
--------0--0--0--0---------------|--------------------------|

  E  E  E  E  E  E     E  E  E  E  E  E  E  E   
--------------------|--------------------------|
--------------------|--------------------------|
--------------------|--------------------------|
--------------------|--------------------------|
--------------------|--------------------------|
--5--4--2--2--2--2--|--------------------------|
--------------------|--3--3--3--3--3--3--3--0--|

                 Repeat and Fade                             
  E  E  E  E  E  E                  E  E  E  E  E  E  E  E   
---------------------------------|--------------------------|
---------------------------------|--------------------------|
---------------------------------|--------------------------|
---------------------------------|--------------------------|
---------------------------------|--------------------------|
--5--4---------------------------|--2--2--2--2--2--2--2--2--|
--------0--0--0--0---------------|--------------------------|

  E  E  E  E  E  E     E  E  E  E  E  E  E  E   
--------------------|--------------------------|
--------------------|--------------------------|
--------------------|--------------------------|
--------------------|--------------------------|
--------------------|--------------------------|
--5--4--2--2--2--2--|--------------------------|
--------------------|--3--3--3--3--3--3--3--0--|

                 Repeat and Fade                             
  E  E  E  E  E  E                  E  E  E  E  E  E  E  E   
---------------------------------|--------------------------|
---------------------------------|--------------------------|
---------------------------------|--------------------------|
---------------------------------|--------------------------|
---------------------------------|--------------------------|
--5--4---------------------------|--2--2--2--2--2--2--2--2--|
--------0--0--0--0---------------|--------------------------|

  E  E  E  E  E  E     E  E  E  E  E  E  E  E   
--------------------|--------------------------|
--------------------|--------------------------|
--------------------|--------------------------|
--------------------|--------------------------|
--------------------|--------------------------|
--5--4--2--2--2--2--|--------------------------|
--------------------|--3--3--3--3--3--3--3--0--|

                 Repeat and Fade                             
  E  E  E  E  E  E                  E  E  E  E  E  E  E  E   
---------------------------------|--------------------------|
---------------------------------|--------------------------|
---------------------------------|--------------------------|
---------------------------------|--------------------------|
---------------------------------|--------------------------|
--5--4---------------------------|--2--2--2--2--2--2--2--2--|
--------0--0--0--0---------------|--------------------------|

  E  E  E  E  E  E     E  E  E  E  E  E  E  E   
--------------------|--------------------------|
--------------------|--------------------------|
--------------------|--------------------------|
--------------------|--------------------------|
--------------------|--------------------------|
--5--4--2--2--2--2--|--------------------------|
--------------------|--3--3--3--3--3--3--3--0--|

                 Repeat and Fade   
  E  E  E  E  E  E                 
---------------------------------|
---------------------------------|
---------------------------------|
---------------------------------|
---------------------------------|
--5--4---------------------------|
--------0--0--0--0---------------|

            
            
Suggest correction
Creating personal tab
Creating personal tab
You can edit any tab online and save it as your Personal.

You can edit, replace or remove any tab part or add personal notes – all changes will be seen only by you.

Personal tabs can be accessed anytime from any device, even offline.
Learn more »
comments
print report bad tab
3 comments total.
0 reply
maxim.torba2 10 Feb 08, 2015 03:23 AM

cover on this song: https://www.youtube.com/watch?v=d1CwAuEGAUY&list=UUJCC1NyXiJtVQ_YGiDuwV4g

0 reply
GrayEcho 10 Jan 15, 2017 09:45 PM

Thank you so much. This is perfect.

0 reply
cc224 12 Aug 21, 2017 07:55 PM

The first note is definitely the 5 on the E string. It's not really up to preference, it has a different sound and this is how it is played by Abasi. If anything, the 0 should be in brackets :)

guest
You may want to rate the tab now too:
select rating
Wanna post a correction for this tab? Suggest correction