Oops, an error
Loading. Please wait.

Keep Your Mind Wide Open tab

version 1
version 1

Whole song

8,804 views 1 this week
6 commentsread comments
1 2 3 4 5
3 more votes to show rating
add to favorites
×
Save as Personal and add changes to this tab that will be seen only by you. Learn more ›
×
You can save this tab as Personal to edit and correct it or add notes. All changes will be seen only by you. Learn more »
launch autoscroll
font size
0
reset
how to read this tab
guitar tuner
edit
Autoscroll
slow
fast
+/-
esc
set tempo
stop
Author
-----------------------------------
Song  : Keep Your Mind Wide Open
Artist: AnnaSophia Robb
Album : Bridge to Terabithia - OST
Date  : June, 2nd 2007
Time  : 23:24
Page  : http://www.annasophiarobb.com/
-----------------------------------

Tabbed by: Nocturnal777 (zdanowicz.lukasz@gmail.com)

I couldn't find this song, so I tabbed it on my own. This is my tribute to AnnaSophia ;)



This is my first Tab!!! Any questions, corrections? Please, write (zdanowicz.lukasz@gmail.com)


    Fm#                     Bm      Cm#
E||----------------------------|   |-----2-------2---|
B||-----2-------2-------2-----5|   |---3---3---3---3-|
G||---2---2---2---2---2---2----|x4 |-4-------4-------|x2
D||-4-------4---------------6--|   |-----------------|
A||----------------------------|   |-----------------|
E||----------------------------|   |-----------------|





Verse 1


Fm#      Bm   Fm#     Bm

Have you ever seen the sky

   Fm#        Bm       Cm#      Bm
so beautiful, colorful, wide and wonderful

Fm#       Bm  Fm#     Bm
Have you ever felt the sun shine

Fm#       Bm           Cm#                Bm
so brilliantly, raining down, over you and me

G                    Fm#   
Have you ever wanted more

Fm#       E
wanted more



Chorus
 A            E                    D           
You've got to keep your mind wide open

         A     D    A
All the possibilities

A             E                   D
You've got to live with your eyes open

 A         D         Fm# 
Believe in what you see



Verse 2

Fm#       Bm  Fm#     Bm
Think of all the days you've wasted

  Fm#        Bm       Cm#       Bm
worrying, wondering, hopelessly hoping

Fm#       Bm  Fm#     Bm
Think of all the time ahead

       Fm#      Bm           
don't hesitate, contemplate

Cm#              Bm
No it's not too late

G                    Fm#
Have you ever wanted more

G                             E
Don't you know there's so much more



Chorus
 A            E                    D           
You've got to keep your mind wide open

         A     D    A
All the possibilities

A             E                   D
You've got to live with your eyes open

 A         D         Fm# 
Believe in what you see




Bm         
Tomorrow's horizons

E
Full of surprises

Bm
Don't let them take your ..

E
dreams away

-------------------------------






            
            
Suggest correction
Creating personal tab
Creating personal tab
You can edit any tab online and save it as your Personal.

You can edit, replace or remove any tab part or add personal notes – all changes will be seen only by you.

Personal tabs can be accessed anytime from any device, even offline.
Learn more »
Give kudos to tab author, rate the tab!
1 2 3 4 5
comments
print report bad tab
6 comments total. Showing first comments.
0 reply
MegaTastic 10 Aug 18, 2007 06:59 PM

i find the intro to be slightly off. this is wat u have:

E||----------------------------| |-----2-------2---|
B||-----2-------2-------2-----5| |---3---3---3---3-|
G||---2---2---2---2---2---2----|x4 |-4-------4-------|x2
D||-4-------4---------------6--| |-----------------|
A||----------------------------| |-----------------|
E||----------------------------| |-----------------|

this is what the intro should look like:

E||------------------------------| |-----2-------2---|
B||-----2-------2-------2-------5| |---3---3---3---3-|
G||---2---2---2---2---2---2-5h6--|x4 |-4-------4-------|x2
D||-4-------4-------4------------| |-----------------|
A||------------------------------| |-----------------|
E||------------------------------| |-----------------|

0 reply
MegaTastic 10 Aug 18, 2007 07:05 PM

whoa that came out weird... here lemme try again

INTRO

wat u have:

E||----------------------------|
B||-----2-------2-------2-----5|
G||---2---2---2---2---2---2----|x4
D||-4-------4---------------6--|
A||----------------------------|
E||----------------------------|

wat it should look like:

E||--------------------------------|
B||-----2-------2-------2--------5-|
G||---2---2---2---2---2---2---5h6--|x4
D||-4-------4-------4--------------|
A||--------------------------------|
E||--------------------------------|

i think u hammer or slide from the 5th to the 6th fret... either way

0 reply
MegaTastic 10 Aug 18, 2007 07:14 PM

ok this line sounds kinda funky...
-----------------------------------

VERSE 1

G Fm#
Have you ever wanted more

Fm# E
wanted more

-----------------------------------------
i think this is what it should look like:
-----------------------------------------

G Bm F#m A
Have you ever wanted more

A E
wanted more

----------------------------------------------------------------------
thanks for tabbing this song! i'm just trying to improve this tab cuz it seems to be containing many errors.

guest
You may want to rate the tab now too:
select rating
Wanna post a correction for this tab? Suggest correction