Oops, an error
Loading. Please wait.

Oft Gefragt tab

5,395 views 21 this week
4 commentsread comments
1 2 3 4 5
x 4
add to favorites
×
Save as Personal and add changes to this tab that will be seen only by you. Learn more ›
×
You can save this tab as Personal to edit and correct it or add notes. All changes will be seen only by you. Learn more »
launch autoscroll
font size
0
reset
how to read this tab
guitar tuner
edit
Autoscroll
slow
fast
+/-
esc
set tempo
stop
Author
Difficulty
intermediate
-------------------------------------------------------------------------------
                             Oft Gefragt - AnnenMayKantereit
-------------------------------------------------------------------------------
Tabbed by: nils96
Chords by: blitzmerker01
E-mail:

Tuning: E-Standard

Cm    [x 3 5 5 4 3]
Ab    [4 6 6 5 4 4]
Eb    [6 6 8 8 8 6]
Bb    [6 8 8 7 6 6]
Gm    [3 5 5 3 3 3]


[Part 1 (piano)]

     Cm           Ab         Eb           
     Du hast mich angezogen, ausgezogen, großgezogen,
     Cm           Ab         Eb           
     und wir sind umgezogen, ich hab dich angelogen!
     Cm        Ab         Eb           
     Ich nehme keine Drogen
                          Gm          
     und in der Schule war ich auch.


     Cm           Ab               Eb    
     Du hast dich oft gefragt, was mich zerreißt,
     Cm         Ab                Eb    
     ich wollte nicht, dass du es weißt.
     Cm         Ab                  Eb  
     Du warst allein zu Haus', hast mich vermisst,
         Cm                Bb               Eb  
     und dich gefragt, was du noch für mich bist,
         Cm                Bb               Eb 
     und dich gefragt, was du noch für mich bist.


        Ab                    Eb
     Zu Hause bist immer noch du.
        Ab                   Eb
     Zu Hause bist immer nur du.
     

 guitar comes in :

e|---------------------------------------------------------------------------|
B|--------------------------------------11-------------8-----------8---------|
G|-----------------12---13--12--12---12----12--10--8-----10--8--8------------|
D|-(13)-(12)-(10)------------------------------------------------------------|
A|---------------------------------------------------------------------------|
E|---------------------------------------------------------------------------|

e|-11-11--11-11------------11---------------------------------------------------------------|
B|--------------13--11--13----13--11----11--11h13--11-----------------(8-8-8-8-8-8-8-8-8-8)-|
G|-----------------------------------------------------12--13---8--8------------------------|
D|------------------------------------------------------------------------------------------|
A|------------------------------------------------------------------------------------------|
E|------------------------------------------------------------------------------------------|

play this 2 times:
e|---------------------------------------------------------------------------|
B|-8-8-8-8-8-8-9-9-9-9-9-9-8-8-8-8-8-8-8-8-8-8-8-8-8-------------------------|
G|-8-8-8-8-8-8-8-8-8-8-8-8-8-8-8-8-8-8-8-8-8-8-8-8-8-------------------------|  
D|---------------------------------------------------------------------------|
A|---------------------------------------------------------------------------|
E|---------------------------------------------------------------------------|

(i guess the string pattern is pretty obvious so i used the chords written by 
blitzmerker01 - thanks at this point)

Cm           Ab           Eb      
Du hast mich abgeholt und hingebracht,
     Cm            Ab              Eb 
bist mitten in der Nacht wegen mir aufgewacht.
Cm         Ab          Eb               Gm
Ich hab in letzter Zeit zu oft daran gedacht.


Cm           Ab              Eb     
Wir waren im Park, Paris und Wien,
                    Cm         Ab             Eb     
in der Bretagne und Berlin,aber nicht in Kopenhagen.
Cm           Ab               Eb 
Du hast dich oft gefragt, was mich zerreißt,
         Cm          Ab         Eb 
ich habe aufgehört, mich das zu fragen.


Cm       Ab                    Eb 
Du warst allein zu Haus', hast mich vermisst,
    Cm                Bb               Eb
und dich gefragt, was du noch für mich bist,
    Cm                Bb               Eb
und dich gefragt, was du noch für mich bist.


   Ab                   Eb
Zu Hause bist immer nur du.
   Ab                    Eb
Zu Hause bist immer noch du.

e|-11-11-11-11-11-11-11-11-11-11-11-11-11-11-11-11-11-11-11-11-11-13h15-11---|
B|-16-16-16-16-16-16-16-16-16-16-16-16-16-16-16-16-16-16-16-16-16------------| (its actually a full-bend on 14
G|---------------------------------------------------------------------------|  i just had no space for the 
D|---------------------------------------------------------------------------|  correct quotation :'D)
A|---------------------------------------------------------------------------|
E|---------------------------------------------------------------------------|

                              
e|-11-11-11-11-11-11-11-11-11-11-11-11-11-11-11-11-11-11-11-11-11-11-11-11---|
B|-16-16-16-16-16-16-16-16-16-14-16-16-16-16-16-16-16-16-16-16-16-16-16-16---|
G|---------------------------------------------------------------------------|  
D|---------------------------------------------------------------------------|
A|---------------------------------------------------------------------------|
E|---------------------------------------------------------------------------|


Cm            Ab      Eb 
Ich hab keine Heimat, ich hab nur dich,
Cm         Ab        Eb 
du bist zu Hause für immer und mich,
Cm         Ab        Eb 
du bist zu Hause für immer und mich,
Cm         Ab        Eb 
du bist zu Hause für immer und mich,
Cm         Ab        Eb 
du bist zu Hause für immer und mich,
Cm         Ab        Eb 
du bist zu Hause für immer und mich,
Cm         Ab        Eb 
du bist zu Hause für immer und mich,
Cm            Ab      Eb 
hab keine Heimat, ich hab nur dich,
Cm         Ab        Eb 
du bist zu Hause für immer und mich.



************************************

| (n)  Ghost note
| h    Hammer-on  

************************************

            
            
Suggest correction
Creating personal tab
Creating personal tab
You can edit any tab online and save it as your Personal.

You can edit, replace or remove any tab part or add personal notes – all changes will be seen only by you.

Personal tabs can be accessed anytime from any device, even offline.
Learn more »
comments
print report bad tab
4 comments total. Showing first comments.
+2 reply
iFeelX 10 Feb 23, 2016 07:52 AM

sehr guter tab!!

0 reply
nils96 126 Mar 22, 2016 06:07 AM

danke sehr :)

0 reply
jorgpetri 11 Jul 11, 2016 01:20 PM

e|-11-11--11-11------------11---------------------------------------------------------------|
B|--------------13--11--13----13--11----11--11h13--11-----------------(8-8-8-8-8-8-8-8-8-8)-|
G|-----------------------------------------------------12--13---8--8------------------------|
D|------------------------------------------------------------------------------------------|
A|------------------------------------------------------------------------------------------|
E|------------------------------------------------------------------------------------------|

guest
You may want to rate the tab now too:
select rating
Wanna post a correction for this tab? Suggest correction