Oops, an error
Loading. Please wait.
We have an official Alison Hell tab made by UG professional guitarists. Check out the tab »
×
1,731 views 12 this week
no commentswrite comment
1 2 3 4 5
1 last vote to show rating
add to favorites
×
Save as Personal and add changes to this tab that will be seen only by you. Learn more ›
×
You can save this tab as Personal to edit and correct it or add notes. All changes will be seen only by you. Learn more »
launch autoscroll
font size
0
reset
guitar tuner
backing track
0:00
0:00
edit
Autoscroll
slow
fast
+/-
esc
set tempo
stop
Tabbed by: 6METAL6BASSIST6
E-mail: petergriffinav@gmail.com

Tuning:EbAbDbGb

Gb|9-----9-----------------8-----8-----------------9-----9-----------------8-----8-----------------|
Db|--7-7---------------------7-7---------------------7-7---------------------7-7-------------------|
Ab|------------------------------------------------------------------------------------------------|
Eb|------------------------------------------------------------------------------------------------|

Gb|9-----9-----9-----9-----8-----8-----8-----8-----9-----9-----9-----9-----8-----8-----8-----------|
Db|--7-7---7-7---7-7---7-7---7-7---7-7---7-7---7-7---7-7---7-7---7-7---7-7---7-7---7-7-------------| x2
Ab|------------------------------------------------------------------------------------------------|
Eb|------------------------------------------------------------------------------------------------|

Gb|------------------------------------8-----------------------------------------------8-----------|
Db|------------------------------8-----------8-----------------------------------8-----------8-----|
Ab|0-0-0-0-0-0-0-0-0-0-0-0-6-6-6---6-6---6-6---6-6-0-0-0-0-0-0-0-0-0-0-0-0-6-6-6---6-6---6-6---6-6-|
Eb|------------------------------------------------------------------------------------------------|

Gb|------------------------------------------------------------------------------------------------|
Db|------------------------1-----------------------------------------------1-----------1-1-1-1-/---|
Ab|0---------------------2-----------------------2-0---------------------2-----------2-------------|
Eb|------------------------------------------------------------------------------------------------|

Gb|------------------------------8-8-8-8-7-5-------------------------------------6-6-6-6-5-3-------|
Db|--------------7-7-7-----------------------8-7-5---------------5-5-5-----------------------6-5-3-|
Ab|0-0-0-0-----0-----------6-6-6-------------------------------------------4-4-4-------------------|
Eb|------------------------------------------------3-3-3-3-----3-----------------------------------|

Gb|------------------------------8-8-8-8-7-5-------------------------------------6-5-3-------------|
Db|--------------7-7-7-----------------------8-7-5---------------5-5-5-----------------------------|
Ab|0-0-0-0-----0-----------6-6-6-------------------------------------------4-4-4-------4-----------|
Eb|------------------------------------------------3-3-3-3-----3-----------------------------------|

Gb|------------------------------------------------------------5---|
Db|----------------------------------------------------------------|
Ab|0-6-5-3---5-6---0-6-5-3---5-6---0-6-5-3---5-6---0-0-0-0-3-------|
Eb|----------------------------------------------------------------|

Gb|----------------------------------------------------------------|
Db|----------------------------------------------------------------|
Ab|0-6-5-3---5-6---0-6-5-3---5-6---0-6-5-3---5-6---0-0-0-0---------|
Eb|--------------------------------------------------------4---4---|

Gb|------------------------------------------------------------5---|
Db|----------------------------------------------------------------|
Ab|0-6-5-3---5-6---0-6-5-3---5-6---0-6-5-3---5-6---0-0-0-0-3-------|
Eb|----------------------------------------------------------------|

Gb|----------------------------------------------------------------|
Db|------------------------------------------------------------6---|
Ab|0-6-5-3---5-6---0-6-5-3---5-6---0-6-5-3---5-6---0-0-0-0---------|
Eb|--------------------------------------------------------4-------|

Gb|----------------------------7-----------------------------------|
Db|--7-----5-------3-----------0-----------------------------------|
Ab|----------------------------------------------------------------|
Eb|5-----3-----1-------0-----0-------------------------------------|

Gb|----------------------------------------------------------------|
Db|----------------------------------------------------------------|
Ab|----------------------------------------------------------------|
Eb|----------------------------------------------------------------|

Gb|--------------/-9-------12------12--10------9---9---10----------|
Db|--------------------------------------------------------12--10/-|
Ab|----------------------------------------------------------------|
Eb|----------------------------------------------------------------|

Gb|------------------/-10--9---------------------------------------|
Db|12--------------------------------------------------------------|
Ab|--------------------------------0---0---0---0---0---0---0---0---|
Eb|----------------------------------------------------------------|

Gb|--------------------------------|
Db|7---7---7---7---7---7---7---7---|
Ab|--------------------------------|
Eb|--------------------------------|

1:21

Gb|----------------------------------------------------------------|
Db|7-\-----------------------------7-\-----------------------------|
Ab|----0-0-0---0-0-0---0-0-0---0-0-----0-0-0---0-0-0---0-0-0---0---|
Eb|----------------------------------------------------------------|

Gb|------------------------------------------------7-5-----7-5-----|
Db|7-\-----------------------------7-\-----------------7-------7---|
Ab|----0-0-0---0-0-0---0-0-0---0-0-----0-0-0---0-------------------|
Eb|----------------------------------------------------------------|

Gb|----------------------------------------------5-7-8---7-/-5-----|
Db|7-\-----------------------------7-\-------/-7-------7-------7-5-|
Ab|----0-0-0---0-0-0---0-0-0---0-0-----0-0-0-----------------------|
Eb|----------------------------------------------------------------|

Gb|------------------------------------5-7-5---5-------------------|
Db|7-\-----------------------------7---------7---7---5-------------|
Ab|----0-0-0---0-0-0---0-0-0---0-0-----------------7---7-5-7-5-3---|
Eb|----------------------------------------------------------------|

1:39

Gb|----------------------------------------------------------------|
Db|----------------------------------------------------------------| x2
Ab|3---0-0-0-0-0-0-0-0-0-0-0-3-0-0-2---0-0-0-0-0-0-0---------0-----|
Eb|----------------------------------------------------0-2-3---3-2-|

Gb|----------------------------------------------------------------|
Db|----------------------------------------------------------------|
Ab|3---0-0-3---0-0-0-0-0-0-0-3-0-0-2---0-0-0-0-0-0-0---------0-----|
Eb|----------------------------------------------------0-2-3---3-2-|

Gb|----------------------------------------------------------------|
Db|----------------------------------------------------------------|
Ab|--------3---0-0-0-0-0-0-0-3-0-0-2---0-0-0-0-0-0-0---------0-----|
Eb|----------------------------------------------------0-2-3---3-2-|

1:58

Gb|----------------------------------------------------------------|
Db|3-2-----------------------------3-2-------------------------3---|
Ab|--------------------------7-\-----------------------------------|
Eb|----0-0-5-4-0-0-0-0-0-0-0-----------0-0-5-4-0-0-0-1-0-0-1-------|

Gb|----------------------------------------------------------------|
Db|3-2-----------------------------3-2---------------------2-3-----|
Ab|----------------------------------------------------------------|
Eb|----0-0-5-4-0-0-0-0-0-0-0-0-0-------0-0-5-4-0-0-0-4-5-----------|

Gb|----------------------------------------------------------------|
Db|3-2-----------------------------3-2-----------------------------|
Ab|--------------------------7-\-----------------------------------|
Eb|----0-0-5-4-0-0-0-0-0-0-0-----------0-0-5-4-0-0-0-1-0-0-1---1---|

Gb|----------------------------------------------------------------|
Db|3-2-----------------------------3-2---------------------2-3-----|
Ab|----------------------------------------------------------------|
Eb|----0-0-5-4-0-0-0-0-0-0-0-0-0-------0-0-5-4-0-0-0-4-5-----------|

Gb|----------------------------------------------------------------|
Db|3-2-----------------------------3-2-----------------------------|
Ab|--------------------------7-\-----------------------------------|
Eb|----0-0-5-4-0-0-0-0-0-0-0-----------0-0-5-4-0-0-0-1-0-0-1---1---|

Gb|----------------------------------------------------------------|
Db|3-2-----------------------5-5---3-2---------------------2-3-----|
Ab|----------------------------------------------------------------|
Eb|----0-0-5-4-0-0-0-0-0-0-0-----------0-0-5-4-0-0-0-4-5-----------|

2:27

Gb|----------------------------------------------------------------|
Db|----------------------------------------------------------------|
Ab|3---0-0-0-0-0-0-0-0-0-0-0-3-0-0-2---0-0-0-0-0-0-0---------0-----|
Eb|----------------------------------------------------0-2-3---3-2-|

Gb|--------------------------------------------------5---6---7-----|
Db|----------------------------------------------------------------|
Ab|3---0-0-0-0-0-0-0-0-0-0-0-3-0-0-2---0-0-0-0-0---3---4---5---6---|
Eb|----------------------------------------------------------------|

Gb|------------------------------------------------------------------|
Db|------------------------------------------------------------------|
Ab|3---0-0-3/10\-0-0-0-0-0-0-0-3-0-0-2---0-0-0-0-0-0-0---------0-----|
Eb|------------------------------------------------------0-2-3---3-2-|

Gb|----------------------------------------------------------------|
Db|7-\-------------------------------------------------------------|
Ab|--------3---0-0-0-0-0-0-0-3-0-0-2---0-0-0-0-0-0-0---------0-----|
Eb|----------------------------------------------------0-2-3---3-2-|

2:46

Gb|----------------------------------------------------------------|
Db|3-2-----------------------------3-2-----------------------------|
Ab|--------------------------7-\-----------------------------------|
Eb|----0-0-5-4-0-0-0-0-0-0-0-----------0-0-5-4-0-0-0-1-0-0-1---1---|

Gb|----------------------------------------------------------------|
Db|3-2-----------------------------3-2---------------------2-3-----|
Ab|----------------------------------------------------------------|
Eb|----0-0-5-4-0-0-0-0-0-0-0-0-0-------0-0-5-4-0-0-0-4-5-----------|

Gb|----------------------------------------------------------------|
Db|3-2-----------------------------3-2-----------------------------|
Ab|--------------------------7-\-----------------------------------|
Eb|----0-0-5-4-0-0-0-0-0-0-0-----------0-0-5-4-0-0-0-1-0-0-1---1---|

Gb|----------------------------------------------------------------|
Db|3-2-----------------------5-5---3-2---------------------2-3-----|
Ab|----------------------------------------------------------------|
Eb|----0-0-5-4-0-0-0-0-0-0-0-----------0-0-5-4-0-0-0-4-5-----------|

3:05

Gb|----------------------------------------7-------7---------------|
Db|------------------------------------5h7---------7---------------|
Ab|5---8---7---4---5---8---7---4---5-----------4---5---------------|
Eb|----------------------------------------------------------------|

Gb|----------------------------------------------------7-6-5-------|
Db|----------------------------------------------------------7-6-\-|
Ab|5---8---7---4---5---8---7---4---5---8---7---4---5---------------|
Eb|----------------------------------------------------------------|

Gb|------------------------7-----------------------7---------------|
Db|--------------------5h7-------------------------7---------------|
Ab|5---8---7---4---5-----------4---5---8---7---4---5---------------|
Eb|----------------------------------------------------------------|

Gb|----------------------------------------------------------------|
Db|--------------------------------12--15--14--11------------------|
Ab|5---8---7---4---5---8---7---4-------------------5---------------|
Eb|----------------------------------------------------------------|

Gb|5-3-2-3-2---2-----------------2-3-5-7-----------10-9-7-9-7----7-----------------------7-9-10-9-7--------|
Db|----------5---5-3-5-3-2-2-3-5------------------------------10---10-8-10-8-7----7-8-10------------10-8-7-|
Ab|----------------------------------------------------------------------------10--------------------------|
Eb|--------------------------------------------------------------------------------------------------------|

3:30

Gb|----------------------------------------------------------------------------4-----------5-------|
Db|------------------------------------------------------------------------------------------------|
Ab|0-----0-0-0-0-0-0-0-0-0-7-----0-0-0-0-0-0-0-0-0-8-----0-0-0-0-0-0-0-0-0-2-------2---3-----2-----|
Eb|------------------------------------------------------------------------------------------------|

Gb|------------------------------------------------------------------------------------------------|
Db|------------------------------------------------------------------------------------------------|
Ab|0-----0-0-0-0-0-0-0-0-0-7-\---0-0-0-0-0-0-0-0-0-8-\---0-0-0-0-0-0-0-0-0-2-----------3-----2-----|
Eb|------------------------------------------------------------------------------------------------|

Gb|------------------------------------------------------------------------------------------------|
Db|4-4-4-4-4-4-4-4-4-4-4-4-4-4-4-4-4-4-4-4-----------------------------------4-4-------------------|
Ab|----------------------------------------4-2-----------------------------------------------2-----|
Eb|------------------------------------------------2-2-2-2-2-2-2-2-2-2-2-2-2-----2-2-2-2-2-2-------|

Gb|-------------------------------9-11-11---------------------------------------------------------------|
Db|------------------------7-9-11---------11-9-11-9-----------------------------------------------------|
Ab|9-9-9-9-9-9-9-9-9-9-7-9------------------------------------------------------------------------2-----|
Eb|-----------------------------------------------------2-2-2-2-2-2-2-2-2-2-2-2-2-2-2-2-2-2-2-2-2-------|

Gb|------------------------------------------------------------------------------------------------|
Db|------------------------------------------------------------------------------------------------|
Ab|0-------------------------------------------------------------------------------------------5---|
Eb|------------------------------------------------2-----------------------3---2---0---2---0-------|

4:04

Gb|----------------------------------------------------------------|
Db|----------------------------------------------------------------| x2
Ab|3---0-0-0-0-0-0-0-0-0-0-0-3-0-0-2---0-0-0-0-0-0-0---------0-----|
Eb|----------------------------------------------------0-2-3---3-2-|

Gb|----------------------------------------------------------------|
Db|--------10\-----------------------------------------------------|
Ab|3---0-0-----0-0-0-0-0-0-0-3-0-0-2---0-0-0-0-0-0-0---------0-----|
Eb|----------------------------------------------------0-2-3---3-2-|

Gb|----------------------------------------------------------------|
Db|----------------------------------------------------------------|
Ab|--------3---0-0-0-0-0-0-0-3-0-0-2---0-0-0-0-0-0-0---------0-----|
Eb|----------------------------------------------------0-2-3---3-2-|

4:23

Gb|----------------------------------------------------------------|
Db|3-2-----------------------------3-2-------------------------3---|
Ab|--------------------------7-\-----------------------------------|
Eb|----0-0-5-4-0-0-0-0-0-0-0-----------0-0-5-4-0-0-0-1-0-0-1-------|

Gb|----------------------------------------------------------------|
Db|3-2-----------------------------3-2---------------------2-3-----|
Ab|----------------------------------------------------------------|
Eb|----0-0-5-4-0-0-0-0-0-0-0-0-0-------0-0-5-4-0-0-0-4-5-----------|

Gb|----------------------------------------------------------------|
Db|3-2-----------------------------3-2-------------------------3---|
Ab|--------------------------7-\-----------------------------------|
Eb|----0-0-5-4-0-0-0-0-0-0-0-----------0-0-5-4-0-0-0-1-0-0-1-------|

Gb|----------------------------------------------------------------|
Db|3-2-----------------------5-5---3-2---------------------2-3-----|
Ab|----------------------------------------------------------------|
Eb|----0-0-5-4-0-0-0-0-0-0-0-----------0-0-5-4-0-0-0-4-5-----------|

4:41

Gb|----------------------------------------------------------------|
Db|7-\-----------------------------7-\-----------------------------|
Ab|----0-0-0---0-0-0---0-0-0---0-0-----0-0-0---0-0-0---0-0-0---0---|
Eb|----------------------------------------------------------------|

Gb|--------------------------------5/7-5---5-----------------------|
Db|7-\-----------------------------------7---7-5---5/7-5---5-------|
Ab|----0-0-0---0-0-0---0-0-0---0-------------------------7---7-5---|
Eb|----------------------------------------------------------------|

Gb|----------------------------------------------------------------|
Db|----------------------------------------------------------------|
Ab|3---0-0-0-0-0-0-0-0-0-0-0-3-0-0-2---0-0-0-0-0-0-0---------0-----|
Eb|----------------------------------------------------0-2-3---3-2-|

Gb|----------------------------------------------------------------5---|
Db|----------------------------------------------------------------5---|
Ab|3---0-0-0-0-0-0-0-0-0-0-0-3-0-0-2---0-0-0-0-0-0-0---------0-----3---|
Eb|----------------------------------------------------0-2-3---3-2-----|

            
            
Suggest correction
Creating personal tab
Creating personal tab
You can edit any tab online and save it as your Personal.

You can edit, replace or remove any tab part or add personal notes – all changes will be seen only by you.

Personal tabs can be accessed anytime from any device, even offline.
Learn more »
Give kudos to tab author, rate the tab!
1 2 3 4 5
comments
print report bad tab
guest
You may want to rate the tab now too:
select rating
Wanna post a correction for this tab? Suggest correction