Oops, an error
Loading. Please wait.
We have an official Alison Hell tab made by UG professional guitarists. Check out the tab »
×
4,079 views 3 this week
no commentswrite comment
1 2 3 4 5
x 4
add to favorites
×
Save as Personal and add changes to this tab that will be seen only by you. Learn more ›
×
You can save this tab as Personal to edit and correct it or add notes. All changes will be seen only by you. Learn more »
launch autoscroll
font size
0
reset
how to read this tab
guitar tuner
backing track
0:00
0:00
edit
Autoscroll
slow
fast
+/-
esc
set tempo
stop
Difficulty
intermediate
Posted by Annihilator666

Transcribed by: ol753_357lo@yahoo.co.uk

Tuning - Drop 1/4 of a step


(Bass Intro)


Gtr 1
|--0---------------0----|
|-16--------------16----|
|-17--------------17----|
|-19--------------19----|
|-----------------------|
|-----------------------|

Gtr 2
|--0---------------0----|
|-16--------------19----|
|-17--------------20----|
|-19--------------22----|
|-----------------------|
|-----------------------|


Both Gtrs
play twice
                PM
|----------------------|
|----------------------|
|----------------------|
|-2---------------8----|
|-0-------------0-6----|
|----------------------|


Both Gtrs
play twice
  PM---------------------------------------------------|
|------------------------------------------------------|
|------------------------------------------------------|
|------------------------------------------------------|
|------------------------------------------------------|
|-------7-----------7-----------6-----------6----------|
|-5-7-8---8-7-5-7-8---8-7-5-7-8---8-7-5-7-8---8-7------|


Gtr 1
|-----------------------------------------------------------------------------------------------------------------|
|----------------------------------------------------------------------------------------------------/16-16-16----|
|--------9-------------9-------------8-------------8-------------9-------------9-------------8-8-8-8--------------|
|-7-9-10---10-9-7-9-10---10-9-7-9-10---10-9-7-9-10---10-9-7-9-10---10-9-7-9-10---10-9-7-9-10----------------------|
|-----------------------------------------------------------------------------------------------------------------|
|-----------------------------------------------------------------------------------------------------------------|


Gtr 2
|---------------------------------------------------------------------------------------------------------------------------------------------|
|----------------------------------------------------------------------------------------------------------------------------------/19-19-19--|
|----------12----------------12----------------11----------------11----------------12----------------12----------------11-11-11-11------------|
|-10-12-13----13-12-10-12-13----13-12-10-12-13----13-12-10-12-13----13-12-10-12-13----13-12-10-12-13----13-12-10-12-13------------------------|
|---------------------------------------------------------------------------------------------------------------------------------------------|
|---------------------------------------------------------------------------------------------------------------------------------------------|


Both Gtrs
|----------------------------------------------------------|
|----------------------------------------------------------|
|--------9-------------9-------------8-------------8-------|
|-7-9-10---10-9-7-9-10---10-9-7-9-10---10-9-7-9-10---10-9--|
|----------------------------------------------------------|
|----------------------------------------------------------|


|--------------------------------------------------|
|--------------------------------------------------|
|-------7-----------7-----------6-6-6-6-6-6-[6]----|
|-5-7-8---8-7-5-7-8---8-7-5-7-8--------------------|
|--------------------------------------------------|
|--------------------------------------------------|

|----------------------------------------------------------|
|----------------------------------------------------------|
|--------9-------------9-------------8-------------8-------|
|-7-9-10---10-9-7-9-10---10-9-7-9-10---10-9-7-9-10---10-9--|
|----------------------------------------------------------|
|----------------------------------------------------------|

|------------------------------------------|
|------------------------------------------|
|-------7-----------7-----------6-6-6------|
|-5-7-8---8-7-5-7-8---8-7-5-7-8-------6----|
|-------------------------------------4----|
|------------------------------------------|


Both Gtrs
                                              PM----|
|------------------------------------------------------------|
|------------------------------------------------------------|
|------------------------------------------------------------|
|-----------------------------------------------------5--5---|
|-0-6-5-3---5-6--0-6-5-3---5-6--0-6-5-3--5-6--0-0-0-0-3--3---|
|------------------------------------------------------------|


                                               PM----|
|------------------------------------------------------------|
|------------------------------------------------------------|
|------------------------------------------------------------|
|------------------------------------------------------------|
|-0-6-5-3---5-6--0-6-5-3---5-6--0-6-5-3---5-6--0-0-0-0-6--6--|
|------------------------------------------------------4--4--|

                                              PM----|
|------------------------------------------------------------|
|------------------------------------------------------------|
|------------------------------------------------------------|
|-----------------------------------------------------5--5---|
|-0-6-5-3---5-6--0-6-5-3---5-6--0-6-5-3--5-6--0-0-0-0-3--3---|
|------------------------------------------------------------|


Gtr 1
                                               PM----|
|------------------------------------------------------------|
|------------------------------------------------------------|
|------------------------------------------------------------|
|------------------------------------------------------------|
|-0-6-5-3---5-6--0-6-5-3---5-6--0-6-5-3---5-6--0-0-0-0-6--6--|
|------------------------------------------------------4--4--|


Gtr 2
                                                 PM----|
|--------------------------------------------------------------|
|--------------------------------------------------------------|
|--------------------------------------------------------------|
|--------------------------------------------------------------|
|-0-6-5-3---5-6--0-6-5-3---5-6--0-10-8-6---8-10--0-0-0-0-6--6--|
|--------------------------------------------------------4--4--|


  PM    PM    PM         PM
|-----------------------------|
|-----------------------------|
|-----------------------------|
|---7-----5-----3-------------|
|-------------------2---------|
|-5-----3-----1-----0----0----|


Gtr 1
|--------0-------------5-3h5p3---------------------------------0-------|
|------6---6---------3---------6-5p3-------5-5h6p5-----------2---2-----|
|----5-------5-----3---------------------5---------5-------0-------0---|
|-0------------0-3---------------------5-------------5---2-----------2-|
|------------------------------------3-----------------0---------------|
|----------------------------------------------------------------------|


Gtr 2
|----------8---------------/8-6h8p6----------------------------------3-------|
|-------10---10----------3----------10-8S6-------5-5h6p5-----------2---2-----|
|----10---------10-----3-----------------------5---------5-------0-------0---|
|-0----------------0-3-----------------------5-------------5---2-----------2-|
|------------------------------------------3-----------------0---------------|
|----------------------------------------------------------------------------|


Gtr 1
|--------0-------------5-3h5p3----------|
|------6---6---------3---------6-5p3----|
|----5-------5-----3--------------------|
|-0------------0-3----------------------|
|---------------------------------------|
|---------------------------------------|


Gtr 2
|----------8---------------/8-6h8p6-----------|
|-------10---10----------3----------10-8S6----|
|----10---------10-----3----------------------|
|-0----------------0-3------------------------|
|---------------------------------------------|
|---------------------------------------------|


Both Gtrs
  PM-----------------------------------|
|--------------------------------------|
|--------------------------------------|
|-----------------6-6-6-6-6-6-6-6------|
|-----------------7-7-7-7-7-7-7-7------|
|-0-0-0-0-0-0-0-0-0-0-0-0-0-0-0-0------|
|--------------------------------------|


Both Gtrs
play twice
|-----------------------------|
|-----------------------------|
|-----------------------------|
|-14--------14-17-14-14-13----|
|-15--------15-15-15-15-14----|
|-----------------------------|


Both Gtrs
|-------------------------------------------------------------------|
|-------------------------------------------------------------------|
|-------------------------------------------------------------------|
|-14--------14-17-14-14-13-------13-13-13-14------14-17-14-14-13----|
|-15--------15-15-15-15-14-------14-14-14-15------15-15-15-15-14----|
|-------------------------------------------------------------------|


Verse
Both Gtrs
     PM------------------|   PM|    PM-------------------------------|
|--------------------------------------------------------------------|
|--------------------------------------------------------------------|
|--------------------------------------------------------------------|
|-5------------------------5-----4-----------------------------------|
|-3--0-0-0-0-0-0-0-0-0-0-0-3-0-0-2--0-0-0-0-0-0-0-0------------------|
|---------------------------------------------------0-2-3-5-3-2------|

    PM------------------|   PM|    PM--------------------------------|
|--------------------------------------------------------------------|
|--------------------------------------------------------------------|
|--------------------------------------------------------------------|
|-5------------------------5-----4-----------------------------------|
|-3--0-0-0-0-0-0-0-0-0-0-0-3-0-0-2--0-0-0-0-0-0-0-0------------------|
|---------------------------------------------------0-2-3-5-3-2------|


     PM|    PM----------|   PM|    PM-------------------------------|
|-------------------------------------------------------------------|
|-------------------------------------------------------------------|
|-------------------------------------------------------------------|
|-5------5----------------5-----4-----------------------------------|
|-3--0-0-3--0-0-0-0-0-0-0-3-0-0-2--0-0-0-0-0-0-0-0------------------|
|--------------------------------------------------0-2-3-5-3-2------|


          PM----------|   PM|    PM-------------------------------|
|-----------------------------------------------------------------|
|-----------------------------------------------------------------|
|-----------------------------------------------------------------|
|------5----------------5-----4-----------------------------------|
|------3--0-0-0-0-0-0-0-3-0-0-2--0-0-0-0-0-0-0-0------------------|
|------------------------------------------------0-2-3-5-3-2------|


Chorus
Both Gtrs
       PM|     PM----------|         PM|     PM--|   PM---------------|
|---------------------------------------------------------------------|
|---------------------------------------------------------------------|
|---------------------------------------------------------------------|
|-10S9--------------------------10S9-----------------------3----------|
|--8S7-----7S6-------------------8S7-----7S6-------3------------------|
|------0-0-5S4-0-0-0-0-0-0-0-\-------0-0-5S4-0-0-0-1-0-0-1---1-0------|


Gtr 1
       PM|     PM----------|                   PM|     PM--------------------|     PM
|----------------------------------------------------------------------------|
|----------------------------15b17-15b17-------------------------------------|
|----------------------------------------------------------------------------|
|-10S9------------------------------------10S9---------------------9S10------|
|--8S7-----7S6-----------------------------8S7-----7S6-------6S7---7S8-------|
|------0-0-5S4-0-0-0-0-0-0-0-------------------0-0-5S4-0-0-0-4S5-0-----------|


Gtr 2
      PM|     PM----------|                   PM|     PM---------------------|     PM
|----------------------------------------------------------------------------|
|----------------------------19b20-19b20-------------------------------------|
|----------------------------------------------------------------------------|
|-10S9------------------------------------10S9---------------------9S10------|
|--8S7-----7S6-----------------------------8S7-----7S6-------6S7---7S8-------|
|------0-0-5S4-0-0-0-0-0-0-0-------------------0-0-5S4-0-0-0-4S5-0-----------|


Both Gtrs
       PM|     PM----------|         PM|     PM--|   PM------------|
|------------------------------------------------------------------|
|------------------------------------------------------------------|
|------------------------------------------------------------------|
|-10S9--------------------------10S9-------------------------------|
|--8S7-----7S6-------------------8S7-----7S6-------3-----3--3------|
|------0-0-5S4-0-0-0-0-0-0-0-\-------0-0-5S4-0-0-0-1-0-0-1--1------|


Gtr 1
       PM|     PM----------|                   PM|     PM--------------------|     PM
|----------------------------------------------------------------------------|
|----------------------------15b17-15b17-------------------------------------|
|----------------------------------------------------------------------------|
|-10S9------------------------------------10S9---------------------9S10------|
|--8S7-----7S6-----------------------------8S7-----7S6-------6S7---7S8-------|
|------0-0-5S4-0-0-0-0-0-0-0-------------------0-0-5S4-0-0-0-4S5-0-----------|


Gtr 2
      PM|     PM----------|                   PM|     PM---------------------|     PM
|----------------------------------------------------------------------------|
|----------------------------19b20-19b20-------------------------------------|
|----------------------------------------------------------------------------|
|-10S9------------------------------------10S9---------------------9S10------|
|--8S7-----7S6-----------------------------8S7-----7S6-------6S7---7S8-------|
|------0-0-5S4-0-0-0-0-0-0-0-------------------0-0-5S4-0-0-0-4S5-0-----------|


       PM|     PM----------|         PM|     PM--|   PM------------|
|------------------------------------------------------------------|
|------------------------------------------------------------------|
|------------------------------------------------------------------|
|-10S9--------------------------10S9-------------------------------|
|--8S7-----7S6-------------------8S7-----7S6-------3-----3--3------|
|------0-0-5S4-0-0-0-0-0-0-0-\-------0-0-5S4-0-0-0-1-0-0-1--1------|


Gtr 1
       PM|     PM----------|                   PM|     PM--------------------|     PM
|----------------------------------------------------------------------------|
|----------------------------15b17-15b17-------------------------------------|
|----------------------------------------------------------------------------|
|-10S9------------------------------------10S9---------------------9S10------|
|--8S7-----7S6-----------------------------8S7-----7S6-------6S7---7S8-------|
|------0-0-5S4-0-0-0-0-0-0-0-------------------0-0-5S4-0-0-0-4S5-0-----------|


Gtr 2
      PM|     PM----------|                   PM|     PM---------------------|     PM
|----------------------------------------------------------------------------|
|----------------------------19b20-19b20-------------------------------------|
|----------------------------------------------------------------------------|
|-10S9------------------------------------10S9---------------------9S10------|
|--8S7-----7S6-----------------------------8S7-----7S6-------6S7---7S8-------|
|------0-0-5S4-0-0-0-0-0-0-0-------------------0-0-5S4-0-0-0-4S5-0-----------|


Both Gtrs
play twice
   PM------------------|   PM|    PM---------------------------------|
|--------------------------------------------------------------------|
|--------------------------------------------------------------------|
|--------------------------------------------------------------------|
|-5------------------------5-----4-----------------------------------|
|-3--0-0-0-0-0-0-0-0-0-0-0-3-0-0-2--0-0-0-0-0-0-0-0------------------|
|---------------------------------------------------0-2-3-5-3-2------|


Verse
Both Gtrs
     PM|    PM----------|   PM|    PM-------------------------------|
|-------------------------------------------------------------------|
|-------------------------------------------------------------------|
|-------------------------------------------------------------------|
|-5-----------------------5-----4-----------------------------------|
|-3--0-0----0-0-0-0-0-0-0-3-0-0-2--0-0-0-0-0-0-0-0------------------|
|---------/----------------------------------------0-2-3-5-3-2------|

          PM----------|   PM|    PM-------------------------------|
|-----------------------------------------------------------------|
|-----------------------------------------------------------------|
|-----------------------------------------------------------------|
|------5----------------5-----4-----------------------------------|
|------3--0-0-0-0-0-0-0-3-0-0-2--0-0-0-0-0-0-0-0------------------|
|------------------------------------------------0-2-3-5-3-2------|


Repeat Chorus


Both Gtrs
play twice
|---------------------------------------------|
|---------------------------------------------|
|---------------------------------------------|
|-7--10--9--6--7--10--9--6--7--10--9--6--7----|
|-5---8--7--4--5---8--7--4--5---8--7--4--5----|
|---------------------------------------------|


|---------------------------------------------|
|---------------------------------------------|
|-7--10--9--6--7--10--9--6--7--10--9--6-------|
|----------------------------------------7----|
|-5---8--7--4--5---8--7--4--5---8--7--4--5----|
|----------------------------------------5----|


Both Gtrs
|-------------------------------------------------------------------------------------------|
|-------------------------------------3-----------------------------------------3-----------|
|-5-3-2-3-2---2-----------------2-3-5-------5-3-2-3-2---2-----------------2-3-5---5-3-2-----|
|-----------5---5-3-5-3-2-2-3-5-----------------------5---5-3-5-3-2-2-3-5---------------5-3-|
|-------------------------------------------------------------------------------------------|
|-------------------------------------------------------------------------------------------|


Both Gtrs
play twice
     PM--------------|    PM--------------|     PM-----------------------------|
|------------------------------------------------------------------------------|
|------------------------------------------------------------------------------|
|-----------------------------------------------------------------0--------0---|
|-2--------------------9--------------------10--------------------0-----5--0---|
|-0--0-0-0-0-0-0-0-0-0-7--0-0-0-0-0-0-0-0-0--8--0-0-0-0-0-0-0-0-0-2-----3--2---|
|------------------------------------------------------------------------------|


Both Gtrs
play twice
                                                                     PM-------------------------------------------|
|-----------------------------------------------------------------------------------------------------------------|
|-----------------------------------------------------------------------------------------------------------------|
|-----------------------------------------------------------------------------------------------------------------|
|-11-11-11-11-11-11-11-11-11-11-11-11-11-11-11-11-11-11-11-11-11-4---------------------------------------------4--|
|--9--9--9--9--9--9--9--9--9--9--9--9--9--9--9--9--9--9--9--9--9-2---4-4-4-4-4-4-4-4-4-4-4-4-4-4-4-4-4-4-4-4-4-2--|
|--------------------------------------------------------------------2-2-2-2-2-2-2-2-2-2-2-2-2-2-2-2-2-2-2-2-2----|


Both Gtrs
                              PM-----------------|
|------------------------------------------------|
|------------------------------------------------|
|------------------------------------------------|
|-2------------------------------------------7---|
|-0---------------4-----------5--4--2--4--2--5---|
|-----------------2-----------3--2--0--2--0------|


Gtr 2 Lead
|-8b10r====8--10-12-8-10-7-8-7b8r=7----13-10-13-12-8-12-10-7-10-8-5-8-7------------|
|------------------------------------------------------------------------8---------|
|---------------------------------------------------------------------------7--4---|
|----------------------------------------------------------------------------------|
|----------------------------------------------------------------------------------|
|----------------------------------------------------------------------------------|

Gtr 3
|-12b13r===12--13-15-12-13-10-12-10b12r=10---17-13-17-15-12-15-13-10-13-12-8-12----|
|----------------------------------------------------------------------------------|
|----------------------------------------------------------------------------------|
|----------------------------------------------------------------------------------|
|----------------------------------------------------------------------------------|
|----------------------------------------------------------------------------------|

Gtr 2
|-------12--------13----17---------12--------13----------15----------12-13---------------------------|
|-----------------------13-------------------------13-------13-12-10----------12-13------------------|
|-11S12-----12S14----14------11S12-----12S14----14-14----------------------10-------9---7--5--4------|
|------------------------------------------------------------------------------------------------2---|
|----------------------------------------------------------------------------------------------------|
|----------------------------------------------------------------------------------------------------|


                               PM|                                         PM------------------|
|----------14----------------------------------------------------------------------------------|
|-------14----17b19r=17b19----------10-9-----9---/9h=10p9----[9]h=10p9----------------9-10-----|
|-16b18---------------------------------------------------11-----------11----------11------11--|
|------------------------------9-11---------------------------------------------11-------------|
|--------------------------------------------------------------------------9-12----------------|
|----------------------------------------------------------------------------------------------|


                                                                                                   PM  PM|
|--------------------------------------------19-21---------------------------------------------------------------|
|-19-22b24r==22p19-21h22p21p19------------17-------19----21b22----10p9-------------------------------------------|
|------------------------------21b23---16-------------18---------------9-8tr9------9-----------------------11\---|
|-------------------------------------------------------------------------------11---11-10-9-8-9p8---8-----------|
|--------------------------------------------------------------------------------------------------9---9-7-------|
|----------------------------------------------------------------------------------------------------------------|


|----------17----------------17-19----17----------17-20b22------------14--------------------------------------------------------------|
|-20b22-------20p17-------17-------20----------17------------------14----17-------14--------------------------------------------------|
|-------------------19b21----------------19b21---------------16b18----------16b18----16b16.5r=16p14----16----14h15-------14-------14--|
|---------------------------------------------------------------------------------------------------16----16-------16-14----14h16-----|
|-------------------------------------------------------------------------------------------------------------------------------------|
|-------------------------------------------------------------------------------------------------------------------------------------|


|------------|
|-----<7>----|
|-<7>--------|
|------------|
|------------|
|------------|


Both Gtrs
play twice
   PM------------------|   PM|    PM---------------------------------|
|--------------------------------------------------------------------|
|--------------------------------------------------------------------|
|--------------------------------------------------------------------|
|-5------------------------5-----4-----------------------------------|
|-3--0-0-0-0-0-0-0-0-0-0-0-3-0-0-2--0-0-0-0-0-0-0-0------------------|
|---------------------------------------------------0-2-3-5-3-2------|


Both Gtrs
     PM|    PM----------|   PM|    PM-------------------------------|
|-------------------------------------------------------------------|
|-------------------------------------------------------------------|
|-------------------------------------------------------------------|
|-5-----------------------5-----4-----------------------------------|
|-3--0-0-\--0-0-0-0-0-0-0-3-0-0-2--0-0-0-0-0-0-0-0------------------|
|--------------------------------------------------0-2-3-5-3-2------|


* pick scrape
          PM----------|   PM|    PM-------------------------------|
|-----------------------------------------------------------------|
|-----------------------------------------------------------------|
|-----------------------------------------------------------------|
|------5----------------5-----4-----------------------------------|
|--*---3--0-0-0-0-0-0-0-3-0-0-2--0-0-0-0-0-0-0-0------------------|
|------------------------------------------------0-2-3-5-3-2------|


Both Gtrs
       PM|     PM----------|         PM|     PM--|   PM------------|
|------------------------------------------------------------------|
|------------------------------------------------------------------|
|------------------------------------------------------------------|
|-10S9--------------------------10S9-------------------------------|
|--8S7-----7S6-------------------8S7-----7S6-------3-----3--3------|
|------0-0-5S4-0-0-0-0-0-0-0-\-------0-0-5S4-0-0-0-1-0-0-1--1------|


Gtr 1
       PM|     PM----------|                   PM|     PM--------------------|     PM
|----------------------------------------------------------------------------|
|----------------------------15b17-15b17-------------------------------------|
|----------------------------------------------------------------------------|
|-10S9------------------------------------10S9---------------------9S10------|
|--8S7-----7S6-----------------------------8S7-----7S6-------6S7---7S8-------|
|------0-0-5S4-0-0-0-0-0-0-0-------------------0-0-5S4-0-0-0-4S5-0-----------|


Gtr 2
      PM|     PM----------|                   PM|     PM---------------------|     PM
|----------------------------------------------------------------------------|
|----------------------------19b20-19b20-------------------------------------|
|----------------------------------------------------------------------------|
|-10S9------------------------------------10S9---------------------9S10------|
|--8S7-----7S6-----------------------------8S7-----7S6-------6S7---7S8-------|
|------0-0-5S4-0-0-0-0-0-0-0-------------------0-0-5S4-0-0-0-4S5-0-----------|


Both Gtrs
       PM|     PM----------|         PM|     PM--|   PM---------------|
|---------------------------------------------------------------------|
|---------------------------------------------------------------------|
|---------------------------------------------------------------------|
|-10S9--------------------------10S9-----------------------3----------|
|--8S7-----7S6-------------------8S7-----7S6-------3------------------|
|------0-0-5S4-0-0-0-0-0-0-0-\-------0-0-5S4-0-0-0-1-0-0-1---1-0------|


Gtr 1
       PM|     PM----|                          PM|     PM--------------------|     PM
|-----------------------------------------------------------------------------|
|----------------------15b17==15-15-15-15-------------------------------------|
|-----------------------------------------------------------------------------|
|-10S9-------------------------------------10S9---------------------9S10------|
|--8S7-----7S6------------------------------8S7-----7S6-------6S7---7S=8------|
|------0-0-5S4-0-0-0-0--------------------------0-0-5S4-0-0-0-4S5-0-----------|


Gtr 2
      PM|     PM----|                          PM|     PM---------------------|     PM
|-----------------------------------------------------------------------------|
|----------------------19b20==20-20-20-20-------------------------------------|
|-----------------------------------------------------------------------------|
|-10S9-------------------------------------10S9---------------------9S10------|
|--8S7-----7S6------------------------------8S7-----7S6-------6S7---7S=8------|
|------0-0-5S4-0-0-0-0--------------------------0-0-5S4-0-0-0-4S5-0-----------|


Both Gtrs
*pick scrape

|-------------------------------------------------------------------|
|-------------------------------------------------------------------|
|-------------------------------------------------------------------|
|-14--------14-17-14-14-13-------13-13-13-14------14-17-14-14-13----|
|-15--------15-15-15-15-14-------14-14-14-15------15-15-15-15-14----|
|-------------------------------------------------------------------|


Both Gtrs
     PM------------------|   PM|    PM-------------------------------|
|--------------------------------------------------------------------|
|--------------------------------------------------------------------|
|--------------------------------------------------------------------|
|-5------------------------5-----4-----------------------------------|
|-3--0-0-0-0-0-0-0-0-0-0-0-3-0-0-2--0-0-0-0-0-0-0-0------------------|
|---------------------------------------------------0-2-3-5-3-2------|

     PM------------------------|   PM|    PM-------------------------------|
|--------------------------------------------------------------------------|
|--------------------------------------------------------------------------|
|--------------------------------------------------------------------------|
|---5----------------------------5-----4------------------------------5----|
|---3--0-0-0-0-0-00-0-00-0-00-0--3-0-0-2--0-0-0-0-0-0-0-0-------------3----|
|---------------------------------------------------------0-2-3-5-3-2-3----|

Tablature Legend
----------------
 h   - hammer-on
 p   - pull-off
 b   - bend
 pb  - pre-bend
 r   - bend release (if no number after the r, then release immediately)
 /\  - slide into or out of (from/to "nowhere")
 s   - legato slide
 S   - shift slide
  - natural harmonic
[n]  - artificial harmonic
n(n) - tapped harmonic
 ~   - vibrato
 tr  - trill
 T   - tap
 TP  - trem. picking
 PM  - palm muting
\n/  - tremolo bar dip; n = amount to dip
 \n  - tremolo bar down
 n/  - tremolo bar up
/n\  - tremolo bar inverted dip
 =   - hold bend; also acts as connecting device for hammers/pulls
 <>  - volume swell (louder/softer)
 x   - on rhythm slash represents muted slash
 o   - on rhythm slash represents single note slash

Misc Legend
-----------
 |  - bar
||  - double bar
||o - repeat start
o|| - repeat end
*|  - double bar (ending)
 :  - bar (freetime)
 $  - Segno
 &  - Coda
Tempo markers -  = BPM(8/16=s8/s16), where s8 = swing 8ths, s16 = swing 16ths

            
            
Suggest correction
Creating personal tab
Creating personal tab
You can edit any tab online and save it as your Personal.

You can edit, replace or remove any tab part or add personal notes – all changes will be seen only by you.

Personal tabs can be accessed anytime from any device, even offline.
Learn more »
comments
print report bad tab
guest
Wanna post a correction for this tab? Suggest correction