Oops, an error
Loading. Please wait.

Dont Bother Me tab

version 2
version 2

Whole song

Interactive

952 views 1 this week
no commentswrite comment
1 2 3 4 5
2 more votes to show rating
add to favorites
×
Save as Personal and add changes to this tab that will be seen only by you. Learn more ›
×
You can save this tab as Personal to edit and correct it or add notes. All changes will be seen only by you. Learn more »
launch autoscroll
font size
0
reset
how to read this tab
guitar tuner
backing track
0:00
0:00
edit
Autoscroll
slow
fast
+/-
esc
set tempo
stop
#----------------------------------PLEASE NOTE---------------------------------#
#This file is the author's own work and represents their interpretation of the #
#song. You may only use this file for private study, scholarship, or research. #
#------------------------------------------------------------------------------#

DON'T BOTHER ME
As recorded by Annihilator
(From the 1993 Album SET THE WORLD ON FIRE)

Transcribed by Pete "Prowler" Hawthorne
        

Words by Jeff Waters & Coburn Pharr Music by Neil Goldberg & Jeff Waters
Arranged by Annihilator

Gtr I (E A D G B E) - 'Jeff Waters'
Gtr II (E A D G B E) - 'Neil Goldberg'

 Intro
  Fast Rock Q=220(8=s8)
  N.C.
 4/4
  Gtr I
  |-3-| |-3-|         |-3-|       |-3-|     |-3-|
  E E E E E E S S S S E E E   E E E E E E E E E E
|---------------------------|---------------------|
|---------------------------|---------------------|
|---------------------------|---------------------|
|---------------------------|---------------------|
|-2-3-4-3-2-1-2h3p2p0-------|---------------------|
|---------------------2-2-2-|-2---2-2-2-2---2-2-2-|


                                          A5
  |-3-| |-3-|         |-3-|       |-3-|
  E E E E E E S S S S E E E   E E E E E E Q.
|---------------------------|-------------------|
|---------------------------|-------------------|
|---------------------------|-------------2-----|
|---------------------------|-------------2-----|
|-2-3-4-3-2-1-2h3p2p0-------|-------------------|
|---------------------2-2-2-|-2---2-2-2-2-------|


  N.C.
  Gtrs I, II
  |-3-| |-3-|         |-3-|       |-3-|     |-3-|
  E E E E E E S S S S E E E   E E E E E E E E E E
|---------------------------|---------------------|
|---------------------------|---------------------|
|---------------------------|---------------------|
|---------------------------|---------------------|
|-2-3-4-3-2-1-2h3p2p0-------|---------------------|
|---------------------2-2-2-|-2---2-2-2-2---2-2-2-|


                                          A5
  |-3-| |-3-|         |-3-|       |-3-|
  E E E E E E S S S S E E E   E E E E E E Q.
|---------------------------|-------------------|
|---------------------------|-------------------|
|---------------------------|-------------2-----|
|---------------------------|-------------2-----|
|-2-3-4-3-2-1-2h3p2p0-------|-------------------|
|---------------------2-2-2-|-2---2-2-2-2-------|


    N.C.
    |-3-| |-3-|         |-3-|       |-3-|     |-3-|
    E E E E E E S S S S E E E   E E E E E E E E E E
||----------------------------|---------------------|
||o---------------------------|---------------------|
||----------------------------|---------------------|
||----------------------------|---------------------|
||o-2-3-4-3-2-1-2h3p2p0-------|---------------------|
||----------------------2-2-2-|-2---2-2-2-2---2-2-2-|


                                          A5
  |-3-| |-3-|         |-3-|       |-3-|
  E E E E E E S S S S E E E   E E E E E E Q.
|---------------------------|--------------------||
|---------------------------|-------------------o||
|---------------------------|-------------2------||
|---------------------------|-------------2------||
|-2-3-4-3-2-1-2h3p2p0-------|-------------------o||
|---------------------2-2-2-|-2---2-2-2-2--------||


   Verse
    F#5         A5             B5 A5  B5              A5  F#5 F5
    E E Q  Q  E E   E E Q  +E  Q  E   E E Q  H      E E E E E Q.
||----------------|-----------------|-------------|-----------------|
||o---------------|-----------------|-------------|-----------------|
||--------------2-|-5---4--(4)------|-------------|-----------------|
||--------------2-|-5---4--(4)-4--2-|-4-4---------|-4-2-------------|
||o-4-4-----------|------------2--0-|-2-2---------|-2-0---4---3-----|
||--2-2-----------|-----------------|-------------|-------2---1-----|


  F#5         A5             B5
  E E Q  Q  E E   E E Q  +E  Q  E   E E Q  H
|---------------|-----------------|-------------|
|---------------|-----------------|-------------|
|-------------2-|-5---4--(4)------|-------------|
|-------------2-|-5---4--(4)-4--2-|-4-4---------|
|-4-4-----------|------------2--0-|-2-2---------|
|-2-2-----------|-----------------|-------------|


 1.                   2.
  F#            C5     F#              Eb5
  E E  E  E E E Q      E E  E  E E E E E
|-------------------||-------------------|
|------------------o||-------------------|
|---------------5---||-------------------|
|-----[4]S7-----5---||-----[4]S7-------8-|
|---4-------6-6----o||---4-------6-----6-|
|-2-----------------||-2-----------6-6---|


   Chorus
                    E5                  F5
    +E  E E E E E E E   +E  E E E E E E E
||--------------------|-------------------|
||o-------------------|-------------------|
||--------------------|-------------------|
||--(8)-8-------------|-------------------|
||o-(6)-6-6-6-6-6-6-2-|-(2)-2-----------3-|
||------------------0-|-(0)-0-0-0-0-0-0-1-|


                  F#                  B5
  +E  E E E E E E E   +E  E E E E E E E
|-------------------|--------------------|
|-------------------|--------------------|
|-------------------|--------------------|
|-------------------|-------4S7----------|
|-(3)-3-------------|-----4-----6-----9--|
|-(1)-1-1-1-1-1-1-2-|-(2)---------6-6-7--|


                                    E5Eb5 F#5
                |-3-|   |-3-| |-3-|
  +E  E E E E E E E E   E E E E E E E E E E
|---------------------|---------------------|
|---------------------|---------------------|
|---------------------|---------------------|
|---------------------|-------------9-8-----|
|-(9)-9---------------|-------------7-6---4-|
|-(7)-7-7-7-7-7-7h8p7-|-6h7p6-5h6p5-------2-|


                    1.                  2.
                                   Eb5   F#
  +Q   E E E E E E   E E E E E E E E     E E E E H
|------------------|------------------||--------------|
|------------------|-----------------o||--------------|
|------2-------2---|-----2-----2------||-----2--------|
|------2-------2---|-----2-----2---8--||-----2--------|
|-(4)--------------|---------------6-o||--------------|
|-(2)----2-2-2---2-|-2-2---2-2--------||-2-2---2------|


    N.C.
    |-3-| |-3-|         |-3-|       |-3-|     |-3-|
    E E E E E E S S S S E E E   E E E E E E E E E E
||----------------------------|---------------------|
||o---------------------------|---------------------|
||----------------------------|---------------------|
||----------------------------|---------------------|
||o-2-3-4-3-2-1-2h3p2p0-------|---------------------|
||----------------------2-2-2-|-2---2-2-2-2---2-2-2-|


                                          A5
  |-3-| |-3-|         |-3-|       |-3-|
  E E E E E E S S S S E E E   E E E E E E Q.
|---------------------------|--------------------||
|---------------------------|-------------------o||
|---------------------------|-------------2------||
|---------------------------|-------------2------||
|-2-3-4-3-2-1-2h3p2p0-------|-------------------o||
|---------------------2-2-2-|-2---2-2-2-2--------||


   Verse 2
    F#5         A5             B5 A5  B5              A5  F#5 F5
    E E Q  Q  E E   E E Q  +E  Q  E   E E Q  H      E E E E E Q.
||----------------|-----------------|-------------|-----------------|
||o---------------|-----------------|-------------|-----------------|
||--------------2-|-5---4--(4)------|-------------|-----------------|
||--------------2-|-5---4--(4)-4--2-|-4-4---------|-4-2-------------|
||o-4-4-----------|------------2--0-|-2-2---------|-2-0---4---3-----|
||--2-2-----------|-----------------|-------------|-------2---1-----|


  F#5         A5             B5 A5  B5
  E E Q  Q  E E   E E Q  +E  Q  E   E E Q  H
|---------------|-----------------|-------------|
|---------------|-----------------|-------------|
|-------------2-|-5---4--(4)------|-------------|
|-------------2-|-5---4--(4)-4--2-|-4-4---------|
|-4-4-----------|------------2--0-|-2-2---------|
|-2-2-----------|-----------------|-------------|


 1.                   2.
  F#            C5     F#              Eb5
  E E  E  E E E Q      E E  E  E E E E E
|-------------------||-------------------|
|------------------o||-------------------|
|---------------5---||-------------------|
|-----[4]S7-----5---||-----[4]S7-------8-|
|---4-------6-6----o||---4-------6-----6-|
|-2-----------------||-2-----------6-6---|


   Chorus 2
                    E5                  F5
    +E  E E E E E E E   +E  E E E E E E E
||--------------------|-------------------|
||o-------------------|-------------------|
||--------------------|-------------------|
||--(8)-8-------------|-------------------|
||o-(6)-6-6-6-6-6-6-2-|-(2)-2-----------3-|
||------------------0-|-(0)-0-0-0-0-0-0-1-|


                  F#                  B5
  +E  E E E E E E E   +E  E E E E E E E
|-------------------|--------------------|
|-------------------|--------------------|
|-------------------|--------------------|
|-------------------|-------4S7----------|
|-(3)-3-------------|-----4-----6-----9--|
|-(1)-1-1-1-1-1-1-2-|-(2)---------6-6-7--|


                                    E5Eb5 F#5
                |-3-|   |-3-| |-3-|
  +E  E E E E E E E E   E E E E E E E E E E
|---------------------|---------------------|
|---------------------|---------------------|
|---------------------|---------------------|
|---------------------|-------------9-8-----|
|-(9)-9---------------|-------------7-6---4-|
|-(7)-7-7-7-7-7-7h8p7-|-6h7p6-5h6p5-------2-|


                    1.                  2.
                                   Eb5   F#
  +Q   E E E E E E   E E E E E E E E     E E E E E E Q
|------------------|------------------||----------------||
|------------------|-----------------o||----------------||
|------2-------2---|-----2-----2------||-----2-------2--||
|------2-------2---|-----2-----2---8--||-----2-------2--||
|-(4)--------------|---------------6-o||----------------||
|-(2)----2-2-2---2-|-2-2---2-2--------||-2-2---2-2-2----||


   Bridge
    N.C.
                                      ~
        |-3-| |-3-| |-3-|       |-3-|
    E E E E E E E E E E E   E E E E E H
||------------------------|----------------|
||o-----------------------|----------------|
||------------------------|----------------|
||------2p0---0h2h3-2p0---|-----2p0--------|
||o---------2-----------2-|---------2-5----|
||--0-0-------------------|-0-0------------|


      |-3-| |-3-| |-3-|
  E E E E E E E E E E E   E E Q  E E E E
|-----------------------|-----------------|
|-----------------------|-----------------|
|-----------------------|-----------------|
|-----2p0---0h2h3-2p0---|-----5-----------|
|---------2-----------2-|---5----6--------|
|-0-0-------------------|-3--------4-5-0--|


  1.
                                    ~                                ~~
      |-3-| |-3-| |-3-|       |-3-|        |-3-|  |--3--|     |-3--|
  E E E E E E E E E E E   E E E E E H      Q Q Q  Q  Q  Q     Q  Q Q Q.   E
|-----------------------|----------------|-------12-11-10---|-9---------------||
|-----------------------|----------------|------------------|---10-9-8-------o||
|-----------------------|----------------|-9-8-7------------|-----------------||
|-----2p0---0h2h3-2p0---|-----2p0--------|------------------|-----------------||
|---------2-----------2-|---------2-5----|------------------|----------------o||
|---0-------------------|-0-0------------|------------------|-------------0---||
|
| Gtr II
|                                   ~                                ~~
|     |-3-| |-3-| |-3-|       |-3-|                           |-3--|
| E E E E E E E E E E E   E E E E E H      W                  Q  Q Q Q.   E
|-----------------------|----------------|------------------|-9--9-8-7----x---||
|-----------------------|----------------|------------------|----------------o||
|-----------------------|----------------|------------------|-----------------||
|-----2p0---0h2h3-2p0---|-----2p0--------|------------------|-----------------||
|---------2-----------2-|---------2-5----|------------------|----------------o||
|---0-------------------|-0-0------------|------------------|-----------------||


  2.
                                    ~
      |-3-| |-3-| |-3-|       |-3-|        |-3-|  |--3--|   |--3--|
  E E E E E E E E E E E   E E E E E H      Q Q Q  Q  Q  Q   Q  Q  Q  H
|-----------------------|----------------|-------12-11-10-|-9--------------||
|-----------------------|----------------|----------------|---10-12-10\----||
|-----------------------|----------------|-9-8-7----------|----------------||
|-----2p0---0h2h3-2p0---|-----2p0--------|----------------|----------------||
|---------2-----------2-|---------2-5----|----------------|----------------||
|---0-------------------|-0-0------------|----------------|----------------||
|
|                                   ~
|     |-3-| |-3-| |-3-|       |-3-|        |-3-|  |--3--|   |--3--|
| E E E E E E E E E E E   E E E E E H      Q Q Q  Q  Q  Q   Q  Q  Q  H
|-----------------------|----------------|----------------|----------------||
|-----------------------|----------------|----------------|----7--9--7\----||
|-----------------------|----------------|--------9--8--7-|-6--------------||
|-----2p0---0h2h3-2-0---|-----2p0--------|----------------|----------------||
|---------2-----------2-|---------2-5----|-7-6-5----------|----------------||
|---0-------------------|-0-0------------|----------------|----------------||


 Solo ~ Neil Goldberg
  G#                                          E
  E  E    E  E E E E E      E  E  E  E E  E E  E
|----------------------|-------------------------|
|----------------------|-------------------------|
|--------------4-------|---------------4---------|
|--------------4-------|---------------4---------|
|----------------------|-------------------------|
|-4--4----4--4---4-4-4-|-------4--4--4----4----0-|
|
|         ~~~                          ~~
| Q    a  H        E E   a  Q     Q    Q.      E
|----------------------|-------------------------|
|----------------------|-------------------------|
|------4h[6]-------4---|-4S[6]---[6]----------/8-|
|--------------------6-|---------------4---------|
|-x\-------------------|-------------------------|
|-x\-------------------|-------------------------|


                   F#
   E  E E E Q  E   E     E E E   E  E  E Q
|----------------------|---------------------|
|----------------------|---------------------|
|-----------4----------|---------------------|
|-----------4----------|---------------------|
|----------------------|---------------4-----|
|-----0-0-0----0---2---|---2-2---2--3----3---|
|
|                                   ~~~
|              |--3--|
| +E  E E E Q  E E   E   E E E a E  H
|----------------------|---------------------|
|-----9---9------------|---2---2S4-----------|
|-(8)---7---6--4-2-----|-4---4-----[4]-------|
|--------------------4-|---------------------|
|----------------------|---------------------|
|----------------------|---------------------|


  G#                                                  E
  E   E   E E E   E   E E   E   E   E   E   E   E   E E
|-------------------------|-----------------------------|
|-------------------------|-----------------------------|
|-------------4-----------|-----------------4-----------|
|-------------4-----------|-----------------4-----------|
|-------------------------|-----------------------------|
|-4---4---4-4-----4---4-4-|-----4---4---4-------4-----0-|
|
| |--3--|     |--3--|       |--3--| |--3--| |--3--|
| E E   E E E E E   E E E   E E   E E E   E E E   E Q
|-9p7---------------------|-----------------------------|
|-------9p7-----9p==7-----|-9p7-------------------------|
|-----------8---------8-7-|-------8-7-6-----------------|
|-------------9-----------|---------------9-6-----------|
|-------------------------|-------------------9---6-----|
|-------------------------|-------------------------7---|


                     F#                  G
                                          |-3--|
   E   E E E Q   E   E     E E    E    E  E  E E Q
|------------------------|--------------------------|
|------------------------|--------------------------|
|------------4-----------|--------------------------|
|------------4-----------|--------------------------|
|------------------------|--------------------------|
|------0-0-0-----0---2---|---2----2-------3--3-3-3--|
|
|                |--3--|   |----3----|
| +E   Q   E E E E E   E   Q    Q    Q    H
|------------------------|-9---10---11---14\--------|
|----------------------7-|--------------------------|
|--------------4-6S8-----|--------------------------|
|----------4-6-----------|--------------------------|
|------6-----------------|--------------------------|
|-(7)\-------------------|--------------------------|


  G#                                                       E
   E    E E E  E    E  E  E    E    E E E  E    E     E    E
|---------------------------|-----------------------------------|
|---------------------------|-----------------------------------|
|--------------4------------|--------------4--------------------|
|--------------4------------|--------------4--------------------|
|---------------------------|-----------------------------------|
|--4----4-4-4-------4--4--4-|-------4-4-4-------4----------0----|
|
|                              ~~~~~
|                                          |---3---|  |---3---|
|  H           Q       E  E    H           E  E    E  E  E    E
|---------------------19----|-------------19p16--------------16-|
|-19b21r======19b21------19-|-19b21---------------17----17------|
|---------------------------|------------------------16---------|
|---------------------------|-----------------------------------|
|---------------------------|-----------------------------------|
|---------------------------|-----------------------------------|


                                 F#
   E E  E    E     Q        E    E       E    E     E    E     E    E     Q
|-------------------------------------|---------------------------------------|
|-------------------------------------|---------------------------------------|
|------------------4------------------|---------------------------------------|
|------------------4------------------|---------------------------------------|
|-------------------------------------|-----------------------------4---------|
|----0--0----0--------------0----2----|-------2-----2----2-----3----------3---|
|
|  ~~
|       |---3---|  |--3--|  |---3---|    |---3---|  |---3---|  |---3---|
|  Q    E  E    E  E  E  E  E  E    E    E  E    E  E  E    E  E  E    E  Q
|-19---21-19---18-16-15-18-16-15------|---------------------------------------|
|----------------------------------19-|-18-16---19-18-16---15-18-16---15------|
|-------------------------------------|----------------------------------16\--|
|-------------------------------------|---------------------------------------|
|-------------------------------------|---------------------------------------|
|-------------------------------------|---------------------------------------|


  G#                                                     E
    E  E  E    E     E E  E  E    E  E E  E   E  E  E    E
|------------------------------|------------------------------|
|------------------------------|------------------------------|
|--------------------4---------|--------------4---------------|
|--------------------4---------|--------------4---------------|
|------------------------------|------------------------------|
|---4--4--4----4-------4--4--4-|-----4-4--4------4-------0----|
|
|                                    ~~       ~~~~
|         |---3---|                                 |---3---|
|  +Q     E  E    E  Q    E  E    E  Q    E  +Q     E  E    E
|------------------------16-11-|-14-14---14-(14)---16p14------|
|-------------------14---------|---------------------------16-|
|-(16)---13-13-----------------|------------------------------|
|----------------16------------|------------------------------|
|------------------------------|------------------------------|
|------------------------------|------------------------------|


                             F#
      E    E E E   Q    E      E     E    E E  E     E    E  Q
|---------------------------------|-------------------------------|
|---------------------------------|-------------------------------|
|------------------4--------------|-------------------------------|
|------------------4--------------|-------------------------------|
|---------------------------------|-----------------------4-------|
|----------0-0-0--------0------2--|-------2-2--2-----3-------3----|
|
|                                    ~~~~~
|  a  H           +Q    E     +E     Q.        E     Q       Q
|-19-19b21r======(19)--21b23r(21)-|-21b23-----21b23r21b23---21\---|
|---------------------------------|-------------------------------|
|---------------------------------|-------------------------------|
|---------------------------------|-------------------------------|
|---------------------------------|-------------------------------|
|---------------------------------|-------------------------------|


 Solo - Jeff Waters
  A
  PM-------------------------------------------------
        |-3-|     |-3-|           |-3-|      |-3--|
  E   E E E E E E E E E   E   E   E E E E E  E  E E
|-----------------------|---------------------------|
|-----------------------|---------------------------|
|-----------------------|---------------------------|
|-----------------------|---------------------------|
|-0---0-3p0-0-0-0-3p0-0-|-0---0---3p0-0-0-0--3p=0-0-|
|-----------------------|---------------------------|
|
|                                            |-3--|
| W                       E   Q.        Q   +E  E E
|-----------------------|---------------------------|
|-8---------------------|-8---8---------8---(8)-----|
|-7b9-------------------|-7b9-7b9-------7---(7)-7-5-|
|-----------------------|---------------------------|
|-----------------------|---------------------------|
|-----------------------|---------------------------|


                          G5          D5    A5
 ---------------------|
      |--3--|     |-3-|
  E E E E   E E E E E E    E  Q.      E Q   E
|-----------------------|-----------------------|
|-----------------------|-----------------------|
|-----------------------|-------------7-7-------|
|-----------------------|--5--5-------7-7---2---|
|-0-0-3p0---0-0-0-3p0-0-|--5--5-------5-5---0---|
|-----------------------|--3--3-----------------|
|
| Q   E   E   Q   Q        Q      Q   Q   E E
|-----------------------|-----------------------|
|-------------7---------|-------------7---------|
|-7---5-------7---5-----|-------------7---5h7---|
|---------7-------------|-[5]----[5]------------|
|-----------------------|-----------------------|
|-----------------------|-----------------------|


   PM------------------------------------------------
        |--3--|     |--3--|         |-3-|     |-3-|
  +E  E E E   E E E E E   E    E  E E E E E E E E E
|---------------------------|-----------------------|
|---------------------------|-----------------------|
|---------------------------|-----------------------|
|---------------------------|-----------------------|
|-(0)-0-3p0---0-0-0-3p0---0-|--0--0-3p0-0-0-0-3p0-0-|
|---------------------------|-----------------------|
|
| +E  E E   E   E E E   E     +E  E Q     E E Q
|-------5-------------------|-----------------------|
|-----5-----5---8---5-------|-----------------------|
|-(7)-------------7-----7---|-(7)-5-7-----5---5-----|
|---------------------------|---------------7-------|
|---------------------------|-----------------------|
|---------------------------|-----------------------|


                                G5       D5     A5
 ---------------------------|
          |--3--|     |--3--|
  E   E   E E   E E E E E   E   E Q.      E  Q  E
|-----------------------------|-------------------|
|-----------------------------|-------------------|
|-----------------------------|-----------7--7----|
|-----------------------------|-5-5-------7--7--2-|
|-0---0---3p0---0-0-0-3p0---0-|-5-5-------5--5--0-|
|-----------------------------|-3-3---------------|
|
|                                         ~~~
| |--3--|
| E E   E E   E   E E E   E     E E  E E +H
|-----------------------------|-------------------|
|-----------------------------|-------------------|
|-7p5-----5-------------------|-------------------|
|-------7-----7---5---5-------|-------------------|
|-------------------7-----7---|-6-5--3------------|
|-----------------------------|--------5-(5)------|


   PM---------------------------------------------------------
        |-3-|     |-3-|         |--3---|         |----3----|
  +E  E E E E E E E E E    E E  E E    E   E   E E E       E
|-----------------------|------------------------------------|
|-----------------------|------------------------------------|
|-----------------------|------------------------------------|
|-----------------------|------------------------------------|
|-(0)-0-3p0-0-0-0-3p0-0-|--0-0--3p0----0---0---0-3p0-------0-|
|-----------------------|------------------------------------|
|
|  ~~~                                         ~~
|  W                       Q    E    E    +E   E E    E
|--x\-------------------|------------------------------------|
|--x\-------------------|----------------------------20b22r==|
|--x\-------------------|-17---17---17---(17)-17-------------|
|-----------------------|-17---17---17---(17)-17-------------|
|-----------------------|------------------------------------|
|-----------------------|------------------------------------|


                                          G5               D5          A5
 -------------------------------------|
         |----3----|        |----3----|
   E  E  E E       E  E  E  E E       E    E  Q.            E  Q       E
|---------------------------------------|-----------------------------------|
|---------------------------------------|-----------------------------------|
|---------------------------------------|-------------------7--7------------|
|---------------------------------------|--5--5-------------7--7-------2----|
|--0--0--3p0-------0--0--0--3p0-------0-|--5--5-------------5--5-------0----|
|---------------------------------------|--3--3-----------------------------|
|
|                                                                 |---3---|
|  E  E  E    E       E  E  E    E         E  E   E  E      Q     E  E    E
|---------------------------------------|-----------------------------------|
|-20-17-20---20b22r==20-17-20---20b22r==|=20-17--20-20b22==20r---20-20p==17-|
|---------------------------------------|-----------------------------------|
|---------------------------------------|-----------------------------------|
|---------------------------------------|-----------------------------------|
|---------------------------------------|-----------------------------------|


   PM-----------------------------------------------------------------
            |--3---|         |--3---|           |-3-|       |--3---|
  +E     E  E E    E   E   E E E    E    E    E E E E  E  E E E    E
|-------------------------------------|------------------------------|
|-------------------------------------|------------------------------|
|-------------------------------------|------------------------------|
|-------------------------------------|------------------------------|
|-(0)----0--3p0----0---0---0-3p0----0-|--0----0-3p0-0--0--0-3p0----0-|
|-------------------------------------|------------------------------|
|
|                          ~~
|  E     E  E    E    +E   Q      E      H             E  E E    E
|-------------------------------------|-22b24---------20-20-x---17---|
|-------17-17---17---(17)-17-----17---|------------------------------|
|-19b21-------------------------------|------------------------------|
|-------------------------------------|------------------------------|
|-------------------------------------|------------------------------|
|-------------------------------------|------------------------------|


                                            G5                   D5            E5
 --------------------------------------|
              |--3--|             |--3--|
   E    E     E  E  E  E    E     E  E  E    E    Q.              E    Q         E
|-----------------------------------------|------------------------------------------|
|-----------------------------------------|------------------------------------------|
|-----------------------------------------|-----------------------7----7-------------|
|-----------------------------------------|--5----5---------------7----7-------------|
|--0----0-----3p=0--0--0----0-----3p=0--0-|--5----5---------------5----5---------2---|
|-----------------------------------------|--3----3------------------------------0---|
|
|  |---3---|  |--3--|  |---3---|  |--3--|    |---3----|  |--3--|  |---3---|
|  E  E    E  E  E  E  E  E    E  E  E  E    E  E     E  E  E  E  E  E    E  E   E
|-20p17------17---------------------------|------------------------------------------|
|---------20----20-17-20p17------17-------|------------------------------------[19]--|
|-----------------------------19----19-17-|-19p17-------17---------------------------|
|-----------------------------------------|----------19----19-17-19p17---------------|
|-----------------------------------------|------------------------------19-17-------|
|-----------------------------------------|------------------------------------------|


  N.C.
                                            ~
           |-3-| |-3-| |-3-|          |-3-|                |-3-| |-3-| |-3-|
    E    E E E E E E E E E E     E  E E E E H        E   E E E E E E E E E E
|----------------------------|-------------------|---------------------------|
|----------------------------|-------------------|---------------------------|
|----------------------------|-------------------|---------------------------|
|----------2p0---0h2h3-2p0---|--------2p0--------|---------2p0---0h2h3-2p0---|
|--------------2-----------2-|------------2-5----|-------------2-----------2-|
|---0----0-------------------|---0--0------------|---0---0-------------------|
|
|   \5.5
|   W                           +W                  +W
|----------------------------|-------------------|---------------------------|
|-[19]\----------------------|-(19)--------------|-(19)\---------------------|
|----------------------------|-------------------|---------------------------|
|----------------------------|-------------------|---------------------------|
|----------------------------|-------------------|---------------------------|
|----------------------------|-------------------|---------------------------|


                                                       ~
                         |-3-| |-3-| |-3-|       |-3-|
  E E Q  E E E E   +E  E E E E E E E E E E   E E E E E H
|----------------|-------------------------|----------------||
|----------------|-------------------------|----------------||
|----------------|-------------------------|----------------||
|-----5----------|-------2p0---0h2h3-2p0---|-----2p0--------||
|---5----6-------|-----------2-----------2-|---------2-5----||
|-3--------4-5-0-|-(0)-0-------------------|-0-0------------||


  N.C.
  Gtr I                                           G
  |-3-| |-3-|         |-3-|       |-3-|     |-3-|
  E E E E E E S S S S E E E   E E E E E E E E E E
|---------------------------|---------------------|
|---------------------------|---------------------|
|---------------------------|---------------------|
|---------------------------|---------------------|
|-2-3-4-3-2-1-2h3p2p0-------|---------------------|
|---------------------2-2-2-|-2---2-2-2-2---2-2-2-|


 trs I, II
  |-3-| |-3-|         |-3-|       |-3-|
  E E E E E E S S S S E E E   E E E E E E Q.
|---------------------------|-------------------|
|---------------------------|-------------------|
|---------------------------|-------------2-----|
|---------------------------|-------------2-----|
|-2-3-4-3-2-1-2h3p2p0-------|-------------------|
|---------------------2-2-2-|-2---2-2-2-2-------|


   Verse 3
    F#5         A5             B5 A5  B5              A5  F#5 F5
    E E Q  Q  E E   E E Q  +E  Q  E   E E Q  H      E E E E E Q.
||----------------|-----------------|-------------|-----------------|
||o---------------|-----------------|-------------|-----------------|
||--------------2-|-5---4--(4)------|-------------|-----------------|
||--------------2-|-5---4--(4)-4--2-|-4-4---------|-4-2-------------|
||o-4-4-----------|------------2--0-|-2-2---------|-2-0---4---3-----|
||--2-2-----------|-----------------|-------------|-------2---1-----|


  F#5         A5             B5 A5  B5
  E E Q  Q  E E   E E Q  +E  Q  E   E E Q  H
|---------------|-----------------|-------------|
|---------------|-----------------|-------------|
|-------------2-|-5---4--(4)------|-------------|
|-------------2-|-5---4--(4)-4--2-|-4-4---------|
|-4-4-----------|------------2--0-|-2-2---------|
|-2-2-----------|-----------------|-------------|


 1.                   2.
  F#            C5     F#              Eb5
  E E  E  E E E Q      E E  E  E E E E E
|-------------------||-------------------|
|------------------o||-------------------|
|---------------5---||-------------------|
|-----[4]S7-----5---||-----[4]S7-------8-|
|---4-------6-6----o||---4-------6-----6-|
|-2-----------------||-2-----------6-6---|


   Out-Chorus
                    E5                  F5
    +E  E E E E E E E   +E  E E E E E E E
||--------------------|-------------------|
||o-------------------|-------------------|
||--------------------|-------------------|
||--(8)-8-------------|-------------------|
||o-(6)-6-6-6-6-6-6-2-|-(2)-2-----------3-|
||------------------0-|-(0)-0-0-0-0-0-0-1-|


                  F#                  B5
  +E  E E E E E E E   +E  E E E E E E E
|-------------------|--------------------|
|-------------------|--------------------|
|-------------------|--------------------|
|-------------------|-------4S7----------|
|-(3)-3-------------|-----4-----6-----9--|
|-(1)-1-1-1-1-1-1-2-|-(2)---------6-6-7--|


      B5                            E5Eb5 F#5
                |-3-|   |-3-| |-3-|
   E  E E E E E E E E   E E E E E E E E E E
|---------------------|---------------------|
|---------------------|---------------------|
|---------------------|---------------------|
|---------------------|-------------9-8-----|
|-(9)-9---------------|-------------7-6---4-|
|--7--7-7-7-7-7-7h8p7-|-6h7p6-5h6p5-------2-|


                    1.,2.,3.            4.
                                   Eb5   F#
                                         |-3-|
  +Q   E E E E E E   E E E E E E E E     E E E E E H
|------------------|------------------||----------------*|
|------------------|-----------------o||----------------*|
|------2-------2---|-----2-----2------||-------2--------*|
|------2-------2---|-----2-----2---8--||-------2--------*|
|-(4)--------------|---------------6-o||----------------*|
|-(2)----2-2-2---2-|-2-2---2-2--------||-2-2-2---2------*|



Duration Legend
---------------
W - whole; H - half; Q - quarter; E - 8th; S - 16th; T - 32nd; X - 64th; a - acciaccatura
+ - note tied to previous; . - note dotted; .. - note double dotted
Uncapitalized letters represent notes that are staccato (1/2 duration)
Irregular groupings are notated above the duration line
Duration letters will always appear directly above the note/fret number it represents the
duration for.  Duration letters with no fret number below them represent rests.  Multi-
bar rests are notated in the form Wxn, where n is the number of bars to rest for.  Low
melody durations appear below the staff

Tablature Legend
----------------
 h   - hammer-on
 p   - pull-off
 b   - bend
 pb  - pre-bend
 r   - bend release (if no number after the r, then release immediately)
 /\  - slide into or out of (from/to "nowhere")
 s   - legato slide
 S   - shift slide
 - natural harmonic
[n]  - artificial harmonic
n(n) - tapped harmonic
 ~   - vibrato
 tr  - trill
 T   - tap
 TP  - trem. picking
 PM  - palm muting
\n/  - tremolo bar dip; n = amount to dip
 \n  - tremolo bar down
 n/  - tremolo bar up
/n\  - tremolo bar inverted dip
 =   - hold bend; also acts as connecting device for hammers/pulls
 <> - volume swell (louder/softer)
 x   - on rhythm slash represents muted slash
 o   - on rhythm slash represents single note slash

Misc Legend
-----------
 |  - bar
||  - double bar
||o - repeat start
o|| - repeat end
*|  - double bar (ending)
 :  - bar (freetime)
 $  - Segno
 &  - Coda
Tempo markers -  = BPM(8/16=s8/s16), where s8 = swing 8ths, s16 = swing 16ths


            
            
Suggest correction
Creating personal tab
Creating personal tab
You can edit any tab online and save it as your Personal.

You can edit, replace or remove any tab part or add personal notes – all changes will be seen only by you.

Personal tabs can be accessed anytime from any device, even offline.
Learn more »
Give kudos to tab author, rate the tab!
1 2 3 4 5
comments
print report bad tab
guest
You may want to rate the tab now too:
select rating
Wanna post a correction for this tab? Suggest correction