Oops, an error
Loading. Please wait.

Phantasmagoria tab

version 3
version 3

Whole song

Interactive

671 views 1 this week
1 commentread comment
1 2 3 4 5
2 more votes to show rating
add to favorites
×
Save as Personal and add changes to this tab that will be seen only by you. Learn more ›
×
You can save this tab as Personal to edit and correct it or add notes. All changes will be seen only by you. Learn more »
launch autoscroll
font size
0
reset
how to read this tab
guitar tuner
backing track
0:00
0:00
edit
Autoscroll
slow
fast
+/-
esc
set tempo
stop
Author
Difficulty
Well it's my first attempt at a tab so it'll probably be a bit sketchy. You can work out 
to add palm mutes when you listen to the song.

Also, since Jeff Waters is a crazy man, there are some parts of the solo I haven't been
to tab due to the awesomnicity. Play around with the solo, it's good fun.

Annihilator - Phantasmagoria

Tuning - E A D G B E


Gtr 1
x8

|-----------------------------|
|-----------------------------|
|-----------------------------|
|-8S7-------------------------|
|-6S5----7------5-------------|
|-------0-5-0-0-3-0-----------|


Gtr 2
|----------------------------------------------|
|----------------------------------------------|
|----------------------------------------------|
|-2-----------5-----------4----------3---------|
|-2-----------5-----------4----------3---------|
|-0-----------3-----------2----------1---------|


Gtrs 1+2
x7

|--------------------------------------------|
|--------------------------------------------|
|--------------------------------------------|
|------8--7----------------------------------|
|------6--5----------------------------------|
|-0-0-------0-0-5-0-0-0-0-0-3-0--------------|


8th time

|----------------------------------|
|----------------------------------|
|----------------------------------|
|-------8--7-----------------------|
|-------6--5------7--6--5----------|
|-0-0-------0-0--5--4--3-----------|


Gtrs 1+2

|--------------------------------------------------------------------|
|--------------------------------------------------------------------|
|--------------------------------------------------------------------|
|------8--7------------------------8--7------------------------------|
|-2---6--5----5----------7-------6--5-------5----------7-------------|
|-0---------0--3--0-0-0-5--0-0----------0-3--0-0-0-5-----------------|

|----------------------------------------------------------|
|----------------------------------------------------------|
|----------------------------------------------0-----------|
|-----8--7--------------------------8--7-------------------|
|-----6--5-----5----------7--------6--5--------------------|
|-0-0-------0-3--0-0-0-5--0-0--------0---0--3--0-----------|


|--------------------------------------------------------|
|--------------------------------------------------------|
|--------------------------------------------------------|
|------8--7------------------------8--7------------------|
|-2---6--5----5-----------7------6--5----5--------7\-----|
|-0---------0--3--0-0-0-5--0-0-------0-3--0-0-5\---------|

|----------------------------------------------------------|
|----------------------------------------------------------|
|----------------------------------------------0-----------|
|-----8--7--------------------------8--7-------------------|
|-----6--5----5-----------7-------6--5---------------2-----|
|-----------0--3--0-0-0-5---0-0-------0---0-3--0-----0-----|


Gtr 1
|---------------------------------------------------------------|
|---------------------------------------------------------------|
|---------------------------------------------------------------|
|------------------------------------------------------4h5------|
|-2-------------------------------------------------------------|
|-0-------------------------------------------------------------|


Gtr 2
x2

|--------------------------------------------------------------------------------|
|--------------------------------------------------------------------------------|
|--------------------------------------------------------------------------------|
|--------------------------------------------------------------------------------|
|-------------------------------8--8--------------------------------8--8---------|
|-0-0-2-0-0-3-0-0-2-0-0-6--6--0-0-2-0-0-3-0-0-2-0-0-6--6-------------------------|


Gtrs 1+2

|--------------------------------------------------------------------------------|
|--------------------------------------------------------------------------------|
|--------------------------------------------------------------------------------|
|--------------------------------------------------------------------------------|
|-------------------------------8--8--------------------------------8--8---------|
|-0-0-2-0-0-3-0-0-2-0-0-6--6--0-0-2-0-0-3-0-0-2-0-0-6--6-------------------------|

|------------------------------------------------------------------------|
|------------------------------------------------------------------------|
|------------------------------------------------------------------------|
|------------------------------------------------------------------------|
|--------------------------------8--8---------------------8--5--7--------|
|-0-0-2-0-0-3-0-0-2-0-0-6--6--0-0-2-0-3-0-0-6--3--5----------------------|

Gtrs 1+2
x2

|----------------------------------------------------------------|
|----------------------------------------------------------------|
|----------------------------------------------------------------|
|----------------------------------------------------------------|
|---------------------------------------7------------------------|
|-0-0-6-0-0-3-0-0-6-0-0-3-0-0-5---0-0-6-0-0-3-0-0-6-0-0-3-0-0-5--|

|------------------------------------------------------------------------------------|
|------------------------------------------------------------------------------------|
|------------------------------------------------------------------------------------|
|------------------------------------------------------------------------------------|
|----------------------------------------7------------------------8--5--7------------|
|-0-0-6-0-0-3-0-0-6-0-0-3-0-0-5---0-0-6-0-0-3-0-0-6--3--5----------------------------|


Gtrs 1+2
|--------------------------------|
|--------------------------------|
|--------------------------------|
|-9---12---10---7----------------|
|-7---10----8----5---8-----------|
|------------------------6-------|


Gtr 1

|---------------------------------------------------------------------------------------------|
|---------------------------------------------------------------------------------------------|
|---------------------------------------------------------------------------------------------|
|-9--------------------------7--10------------------------7--9-------------------------7--10--|
|-7------------------7--9---5---8----------------7--9---5--7----------------7--9---5---8------|
|----0-0-0-0-0-0-5--7---------0-0-0-0-0-0-5--7--------0-0-0-0-0-0-5--7------------------------|


Gtrs 1+2
Pre verse

|---------------------------------------------------------------------|
|---------------------------------------------------------------------|
|---------------------------------------------------------------------|
|-9---------------------------7--10-------------------------7---------|
|-7-------------------7--9---5---8-----------------7--9---5-----------|
|----0-0-0-0-0-0--5--7---------0-0-0-0-0-0--5--7----------------------|


|---------------------------------------------------------------------|
|---------------------------------------------------------------------|
|---------------------------------------------------------------------|
|-9---------------------------7--10-------------------------7---------|
|-7-------------------7--9---5---8-----------------7--9---5-----------|
|----0-0-0-0-0-0--5--7---------0-0-0-0-0-0--5--7----------------------|

|---------------------------------------------------|
|---------------------------------------------------|
|---------------------------------------------------|
|-3-3-3-3-------------------------------------------|
|-1-1-1-1--3-3-3-3-6-6-6-6-9-9-9-9------------------|
|-------------1-1-1-1-4-4-4-4-7-7-7-7---------------|


|---------------------------------------------------------------------|
|---------------------------------------------------------------------|
|---------------------------------------------------------------------|
|-9---------------------------7--10-------------------------7---------|
|-7-------------------7--9---5---8-----------------7--9---5-----------|
|----0-0-0-0-0-0--5--7---------0-0-0-0-0-0--5--7----------------------|


Gtr 1

|---------------------------------------------------|
|---------------------------------------------------|
|---------------------------------------------------|
|-3-3-3-3-------------------------------------------|
|-1-1-1-1--3-3-3-3-6-6-6-6-9-9-9-9------------------|
|-------------1-1-1-1-4-4-4-4-7-7-7-7---------------|


Gtr 2

|-------------------------------------------------------------------------------------------------------------|
|-------------------------------------------------------------------------------------------------------------|
|-------------------------------------------------------------------------------------------------------------|
|-------------------------------------------------------------------------------------------------------------|
|-13-13-13-13-13-13-13-13-------------------------------------------------------------------------------------|
|------------------------------------13-13-13-13-13-13-13-13-16-16-16-16-16-16-16-16-19-19-19-19-19-19-19-19--|


Gtr 1+2

|-----------------------------------------------------------------------|
|-----------------------------------------------------------------------|
|-----------------------------------------------------------------------|
|-9---------------------------7--10---------------------------7---------|
|-7-------------------7--9---5---8-------------------7--9---5-----------|
|----0-0-0-0-0-0--5--7-----------0-0-0-0-0-0--5--7----------------------|

Gtrs 1+2
verse

|----------------------------------------------------------------------------------|
|----------------------------------------------------------------------------------|
|----------------------------------------------------------------------------------|
|--------------------------------------------------------------------------7-------|
|-------------------------------------------------------------------7--9--5--------|
|-0-0-0-0-0-0-0-0-0-0-0-0-0-0-0-0-0-0-0-0-0-0-0-0-5--7-----------------------------|


|-----------------------------------------------------------------------------------|
|-----------------------------------------------------------------------------------|
|-----------------------------------------------------------------------------------|
|-5---------------------------------------------------------------5--7--11----------|
|-3--3-3-3-3-3-3-3-3-3-3-3-3-3-3-3-3-3-3-3-3-3-3--3--5---9--------------------------|
|-----------------------------------------------------------------------------------|


|-----------------------------------------------------------------------------------|
|-----------------------------------------------------------------------------------|
|-----------------------------------------------------------------------------------|
|----------------------------------------------------------------------------7------|
|--------------------------------------------------------------------7--9---5-------|
|-0-0-0-0-0-0-0-0-0-0-0-0-0-0-0-0-0-0-0-0-0-0-0-0--5--7-----------------------------|


|-----------------------------------------------------------------------------------|
|-----------------------------------------------------------------------------------|
|-----------------------------------------------------------------------------------|
|-5----------------------------------------------------------------5---7------------|
|-3--3-3-3-3-3-3-3-3-3-3-3-3-3-3-3-3-3-3-3-3-3-3--3---5--4--------------------------|
|---------------------------------------------------------------------------2-------|


Chorus 1
Gtrs 1+2
x2

|-----------------------------------------------------------------------------|
|-----------------------------------------------------------------------------|
|-----------------------------------------------------------------------------|
|-----------------------------------------------------------------------------|
|---------8---5------------5---8-----------8---5-------------------4----------|
|-0-0-0-6---3---0-0-0-3---6---0-0-0-6---3--0-0-0-0-3-5--6---------------------|


Pre Verse
Gtrs 1+2
x2

|---------------------------------------------------------------------|
|---------------------------------------------------------------------|
|---------------------------------------------------------------------|
|-9---------------------------7--10-------------------------7---------|
|-7-------------------7--9---5---8-----------------7--9---5-----------|
|----0-0-0-0-0-0--5--7---------0-0-0-0-0-0--5--7----------------------|

|---------------------------------------------------|
|---------------------------------------------------|
|---------------------------------------------------|
|-3-3-3-3-------------------------------------------|
|-1-1-1-1--3-3-3-3-6-6-6-6-9-9-9-9------------------|
|-------------1-1-1-1-4-4-4-4-7-7-7-7---------------|


|---------------------------------------------------------------------|
|---------------------------------------------------------------------|
|---------------------------------------------------------------------|
|-9---------------------------7--10-------------------------7---------|
|-7-------------------7--9---5---8-----------------7--9---5-----------|
|----0-0-0-0-0-0--5--7---------0-0-0-0-0-0--5--7----------------------|


Gtr 1

|------------------------------------------------------------------------|
|------------------------------------------------------------------------|
|------------------------------------------------------------------------|
|------------------------------------------------------------------------|
|-1-1-1-1-1-1-1-1--------------------------------------------------------|
|-----------------------1-1-1-1-1-1-1-1-4-4-4-4-4-4-4-4-7-7-7-7-7-7-7-7--|


Gtr 2

|-------------------------------------------------------------------------------------------------------------|
|-------------------------------------------------------------------------------------------------------------|
|-------------------------------------------------------------------------------------------------------------|
|-------------------------------------------------------------------------------------------------------------|
|-13-13-13-13-13-13-13-13-------------------------------------------------------------------------------------|
|------------------------------------13-13-13-13-13-13-13-13-16-16-16-16-16-16-16-16-19-19-19-19-19-19-19-19--|


Gtrs 1+2

|---------------------------------------------------------------------|
|---------------------------------------------------------------------|
|---------------------------------------------------------------------|
|-9---------------------------7--10-------------------------7---------|
|-7-------------------7--9---5---8-----------------7--9---5-----------|
|----0-0-0-0-0-0--5--7---------0-0-0-0-0-0--5--7----------------------|


Repeat Verse


Gtrs 1+2
Chorus 2

|-----------------------------------------------------------------------------|
|-----------------------------------------------------------------------------|
|-----------------------------------------------------------------------------|
|-----------------------------------------------------------------------------|
|----------8---5-----------5---8-----------8---5-------------------4----------|
|-0-0-0-6---3---0-0-0-3---6---0-0-0-6---3--0-0-0-0-3-5--6---------------------|


|-------------------------------------------------------------------------|
|-------------------------------------------------------------------------|
|-------------------------------------------------------------------------|
|---------8---5------------5---8-----------8---5--------------------------|
|-0-0-0-6---3---0-0-0-3---6---0-0-0-6---3--0-0-0-0-3h5--------------------|
|-----------------------------------------------------0-0-----------------|


Gtrs 1+2
x2
(not sure on this part, play around and you should get it)
|----------------------------------------------------------------------------------|
|----------------------------------------------------------------------------------|
|----------------------------------------------------------------------------------|
|----------------------------------------------------------------------9-----------|
|-8---------7---------5-------------------8---------7-------/-3-\---------------7--|
|-6-0-0-0-5-0-0-0-3-0-0-0-\--0-0-6-0-0-0-5-0-0-0-3-0----0-3-0-0---3-0-0------------|


Gtrs 1+2

|-----------------------------------------------------------------------------------|
|-----------------------------------------------------------------------------------|
|-----------------------------------------------------------------------------------|
|-------------------------------------7------------------------------------------7--|
|-------------------------------7h8---8p7------------------------------7h8----9h10--|
|-0-0-0-0-0-0-0-0-0-0-0---------------0-0-0-0-0-0-0-0-0-0-0-------------------------|

|-----------------------------------------------------------------------|
|-----------------------------------------------------------------------|
|-----------------------------------------------------------------------|
|-9---------------------------------7-----------------------------------|
|-7---------------------------7h8---8p7--------------------2------------|
|----0-0-0-0-0-0-0-0-0----------------0-0-0-0-0-0-\--0------------------|


|------------|
|------------|
|------------|
|------------|
|------------|
|-2S4--------|

|----------------------------------------------------------------------------------------|
|----------------------------------------------------------------------------------------|
|-4-----------------------------------------4-----------------4------4---4---------------|
|-4-----------------------------------------4-----------------4------4---4---------------|
|----------------------------------------------------------------------------------------|
|---4-4-4-4-4-4-4-4-4-4-4-4-4-2S4---4-4-4-4-4-4---4-4---4----2S4-------------------------|

|------------------------------------------------------------------------------------|
|------------------------------------------------------------------------------------|
|-4-----------------------------------------4----------------------------------------|
|-4--------6---------7S6--------------------4--------------6---------7S6-------------|
|-----------4---------5S4-----------------------4---------------------5S4------------|
|---4-4-4---4-4-4-------4-4-4-4-2S4---------4-4-4---4-4-4----------------------------|


Gtr 3
|------------------------------------|
|-----<7>----------------------------|
|-<5>--------------------------------|
|------------------------------------|
|------------------------------------|
|---------------------------0\-------|


|----------------------------------------------------------------------------------------|
|----------------------------------------------------------------------------------------|
|--------------------------12-------11--------------------12-----------------------------|
|--------------9h10h12---------------12----------14-----------14p12-14-------------------|
|-9h10h12--------------------------------14-12-------------------------------------------|
|----------------------------------------------------------------------------------------|


|------------------------------------------------|
|-7b9=======*=========----| * tap harmonic on 19-|th fret
|------------------------------------------------|
|------------------------------------------------|
|------------------------------------------------|
|------------------------------------------------|

*part here I'm not  about so I haven't tabbed it, look at other tabs to get the idea*

Gtr 3
|------------------------------------------------------------------------|
|------------------------------------------------------------------------|
|--------------11h13h15-13-----------------15h16h18-15-------------------|
|-9h11h13---------------------13h14h16-----------------------------------|
|------------------------------------------------------------------------|
|------------------------------------------------------------------------|


Gtr 4
|---------------------------------------------------------------------------|
|---------------------------------------------------------------------------|
|---------------15h16h18-16-----------------18h20h21-18---------------------|
|-13h14h16--------------------16h18h20--------------------------------------|
|---------------------------------------------------------------------------|
|---------------------------------------------------------------------------|


Gtr 3
|-----------------------------------------------------------------------------------------------------------|
|-----------------------------------------------------------------------------------------------------------|
|----------13-15-16-15-13----15-13----13--------------------------------------------------------------------|
|-11-13-14---------------14--------14----14-13------------13-15-16-----15-13------15-------13----13---------|
|------------------------------------------------16-11-13-14----------------14---------14-------14------13--|
|------------------------------------------------------------------------------------------------16---------|


Gtrs 1+2
|-----------------------------------------|
|-----------------------------------------|
|-----------------------------------------|
|-6-6-------6-------7-7-------6-----------|
|-4-4-------4-------5-5-------4-----------|
|-----------------------------------------|


|-----------------------------------------------------|
|-----------------------------------------------------|
|-------------4-4-------------------------------------|
|-6-6-------6-6------7-7-------6--6--6--6-------------|
|-4-4-------4-4------5-5-------4--4--4--4-------------|
|-----------------------------------------------------|

Gtr 3
|------------------------------------------------------------------------------------------------------|
|------------------------------------------------------------------------------------------------------|
|-9h11p9----9---------------------9-11-13-11-9----9h11p9----9---------------------9-11-13-11-9---------|
|------------13---13-11-9-11-13-------------------13----------13---13-11-9-11-13-------------------13--|
|------------------------------------------------------------------------------------------------------|
|------------------------------------------------------------------------------------------------------|


|-------------------------------------------------------------------------------------------|
|-------------------------------------------------------------------------------------------|
|-11h13p11----11----------------------11-13-14-13-11-----9h11p9----9------------------------|
|---------------14----14-13-11-13-14-----------------------14-----------13---13-11-9-11-13--|
|-------------------------------------------------------------------------------------------|
|-------------------------------------------------------------------------------------------|


|----------------------------------------------------------------|
|----------------------------------------------------------------|
|-9h11p9----9------------------------9h11p9----9-----------------|
|------------13---13-11-9-11-13--------------13---13-11-9-11-13--|
|----------------------------------------------------------------|
|----------------------------------------------------------------|


|------------------------------------------------------------------------|
|------------------------------------------------------------------------|
|-11h13p11----11---------------------------------------------------------|
|---------------14----14-13-11-14-13-11-------13-11----------------------|
|------------------------------------14----------14--12--11--11--11--11--|
|------------------------------------------------------9---9---9----9----|


Gtr 3


*LARGE CRAZY ASS BIT I CAN'T DO HERE*

|-------------------------------------------------------------------------------------|
|-10h12p10----10----------------------------------------------------------------------|
|---------------13----13-11-9-13-----11-9-----11-----9--------------------------------|
|--------------------------------------12--------12-----11----------------------------|
|------------------------------------------------------------------11--11--11--11-----|
|-------------------------------------------------------------------9----9----9----9--|


Gtr 1
  PM--------------------------------------------------------------------------------------------------------|
|---------------------------------------------10-12-13-12---------------------------------------------------|
|---------------------------------9-11-12------------------11------12---------------------------------------|
|------------------------7-9-10---------------------------------10-----11------12---------------------------|
|----------------6-8-9------------------------------------------------------10-------11-------12------------|
|---------5-7-8--------------------------------------------------------------------------10--------11-------|
|-4-6-7-------------------------------------------------------------------------------------------------10--|


Gtr 2
  PM--------------------------------------------------------------------------------------------------------------------|
|--------------------------------------------------13-15-16-15----------------------------------------------------------|
|-------------------------------------12-14-15------------------14--------15--------------------------------------------|
|---------------------------10-12-13----------------------------------13------14----------15----------------------------|
|-------------------9-11-12------------------------------------------------------------13------14--------15-------------|
|-----------8-10-11-----------------------------------------------------------------------------------13------14--------|
|-7-9-10------------------------------------------------------------------------------------------------------------13--|


Gtr 3
  PM---------------------------------------------------------------------------------------------------------------------------------|
|----------------------------------------------------------------16-18-19-18---------------------------------------------------------|
|----------------------------------------------------15-17-18------------------17------18--------------------------------------------|
|----------------------------------------13-15-16-----------------------------------16------17------18-------------------------------|
|----------------------------12-14-15--------------------------------------------------------------16------17------18----------------|
|---------------11-13-14------------------------------------------------------------------------------------------16------17---------|
|-10-12-13-----------------------------------------------------------------------------------------------------------------------16--|


Repeat Verse
Repeat Chorus 1

Gtrs 1+2
x2
|----------------------------------------------------------------|
|----------------------------------------------------------------|
|----------------------------------------------------------------|
|----------------------------------------------------------------|
|---------8---5-----------5---8----------8---5---8S7-------------|
|-0-0-0-6---3--0-0-0-3---6--0-0-0-6---3-0-6S5--------------------|


Gtrs 1+2

|-------------------------------------------------------------------------|
|-------------------------------------------------------------------------|
|-------------------------------------------------------------------------|
|-------------------------------------------------------------------------|
|---------5---7-----------5---7------------5---7----------7---8-----------|
|-0-0-0-3---5--0-0-0-3---5--0-00-0-3---5--0-0-0-5---6---------------------|


Gtr 1
|------------|
|------------|
|------------|
|-9-9--------|
|-7-7--------|
|------------|


Gtr 2
|---------------|
|---------------|
|---------------|
|-12-12---------|
|-10-10---------|
|---------------|


FIN.

My interpretation probably isn't as great as others, so check some other versions out to 
 sure.


Tablature Legend
----------------
 h   - hammer-on
 p   - pull-off
 b   - bend
 pb  - pre-bend
 r   - bend release (if no number after the r, then release immediately)
 /\  - slide into or out of (from/to "nowhere")
 s   - legato slide
 S   - shift slide
  - natural harmonic
[n]  - artificial harmonic
n(n) - tapped harmonic
 ~   - vibrato
 tr  - trill
 T   - tap
 TP  - trem. picking
 PM  - palm muting
\n/  - tremolo bar dip; n = amount to dip
 \n  - tremolo bar down
 n/  - tremolo bar up
/n\  - tremolo bar inverted dip
 =   - hold bend; also acts as connecting device for hammers/pulls
 <>  - volume swell (louder/softer)
 x   - on rhythm slash represents muted slash
 o   - on rhythm slash represents single note slash

            
            
Suggest correction
Creating personal tab
Creating personal tab
You can edit any tab online and save it as your Personal.

You can edit, replace or remove any tab part or add personal notes – all changes will be seen only by you.

Personal tabs can be accessed anytime from any device, even offline.
Learn more »
Give kudos to tab author, rate the tab!
1 2 3 4 5
comments
print report bad tab
1 comment total.
0 reply
Anemo 50 Apr 13, 2014 12:02 PM

Not only did you manage to mess up the font, you also stole Evile's Ol Drake tab note for note, which he transcribed by ear after years and years of practice.
Even if I'm 7 years late, it's god damn shameful.

guest
You may want to rate the tab now too:
select rating
Wanna post a correction for this tab? Suggest correction