Oops, an error
Loading. Please wait.

Prosternez-Vous tab

version 2
version 2

Whole song

Interactive

463 views 1 this week
no commentswrite comment
1 2 3 4 5
1 last vote to show rating
add to favorites
×
Save as Personal and add changes to this tab that will be seen only by you. Learn more ›
×
You can save this tab as Personal to edit and correct it or add notes. All changes will be seen only by you. Learn more »
launch autoscroll
font size
0
reset
how to read this tab
guitar tuner
edit
Autoscroll
slow
fast
+/-
esc
set tempo
stop
Author
Piste 2
     S S S S S E  S S S S S E  S S    S S S E  S S S S S E.  E.   
E||--------------------------------|-----------------------------|
B||--------------------------------|-----------------------------|
G||--------------------------------|-----------------------------|
D||--------------------------------|-----------------------------|
A||------------5------------3------|--------5------------9---8---|
E||--0-0-0-0-0-3--0-0-0-0-0-1--0-0-|--0-0-0-3--0-0-0-0-0-7---6---|


  S S S S S E  S S S S S E  S S    S S S E  S S S S S E.  E.   
--------------------------------|-----------------------------|
--------------------------------|-----------------------------|
--------------------------------|-----------------------------|
--------------------------------|-----------------------------|
------------5------------3------|--------5------------9---8---|
--0-0-0-0-0-3--0-0-0-0-0-1--0-0-|--0-0-0-3--0-0-0-0-0-7---6---|


  S S S S S E  S S S S S E  S S    S S S E  S S S S S E.  E.   
--------------------------------|-----------------------------|
--------------------------------|-----------------------------|
--------------------------------|-----------------------------|
--------------------------------|-----------------------------|
------------5------------3------|--------5------------9---8---|
--0-0-0-0-0-3--0-0-0-0-0-1--0-0-|--0-0-0-3--0-0-0-0-0-7---6---|


  S S S S S E  S S S S S E  S S    S S S E  S S S S S Q    E   
--------------------------------|-----------------------------|
--------------------------------|-----------------------------|
--------------------------------|-----------------------------|
--------------------------------|-----------------------------|
------------5------------3------|--------5------------9----8--|
--0-0-0-0-0-3--0-0-0-0-0-1--0-0-|--0-0-0-3--0-0-0-0-0-7----6--|


  W                   E  H.           E     E  H        Q.      
-------------------|---------------------|---------------------|
-------------------|---------------------|---------------------|
-------------------|---------------------|---------------------|
-------------------|---------------------|---------------------|
--L----------------|--9--8------------L--|--9--8--------7------|
--L----------------|--7--6------------L--|--7--6--------5------|


  Q    E  E  E  E  E  E     E  E  E  E  E  E  E  E     E  E  E  E  E  E  E  E   
-------------------------|--------------------------|--------------------------|
-------------------------|--------------------------|--------------------------|
-------------------------|--------------------------|--------------------------|
-------------------------|--------------------------|--------------------------|
--2----------------9--8--|--L-----------------9--8--|--L-----------------9--8--|
--0----0--0--0--0--7--6--|--L--6--6--6--6--6--7--6--|--L--6--6--6--6--6--7--6--|


  E  E  E  Q    E  E  E     Q    E  E  E  E  E  E     E  E  E  E  E  E  E  E   
-------------------------|-------------------------|--------------------------|
-------------------------|-------------------------|--------------------------|
-------------------------|-------------------------|--------------------------|
-------------------------|-------------------------|--------------------------|
--L--------7-------------|--2----------------9--8--|--L-----------------9--8--|
--L--6--6--5----5--5--5--|--0----0--0--0--0--7--6--|--L--6--6--6--6--6--7--6--|


  E  E  E  E  E  E  E  E     E  E  E  Q    E  E  E   
--------------------------|-------------------------|
--------------------------|-------------------------|
--------------------------|-------------------------|
--------------------------|-------------------------|
--L-----------------9--8--|--L--------7-------------|
--L--6--6--6--6--6--7--6--|--L--6--6--5----5--5--5--|


    E  E  E  E  E  E  E  E     E  E  E  E  S S E  E  E   
|---------------------------|---------------------------|
|---------------------------|---------------------------|
|*--------------------------|---------------------------|
|*--------------------------|---------------------------|
|---7--------7--------7-----|--8-----------5-7-8--7--5--|
|------0--0-----0--0-----0--|-----0--0--0---------------|


  E  E  E  E  E  E  E  E     E  E  E  E  S S E  E  E   
--------------------------|---------------------------|
--------------------------|---------------------------|
--------------------------|---------------------------|
--------------------------|---------------------------|
--7--------7--------7-----|--8-----------5-7-8--7--5--|
-----0--0-----0--0-----0--|-----0--0--0---------------|


  E  E  E  E  E  E  E  E     E  E  E  E  S S E  E  E   
--------------------------|---------------------------|
--------------------------|---------------------------|
--------------------------|---------------------------|
--------------------------|---------------------------|
--7--------7--------7-----|--8--L--------5-7-8--7--5--|
--5--5--5-----5--5-----5--|--5--5--5--5---------------|


  E  E  E  E  E  E  E  E     E  E  E  E  S S E  E  E      W                 
--------------------------|---------------------------|--------------------|
--------------------------|---------------------------|--------------------|
--------------------------|---------------------------|--------------------|
--------------------------|---------------------------|--------------------|
--7--------7--------7-----|--8-----------5-7-8--7--5--|--10----------------|
-----0--0-----0--0-----0--|-----0--0--0---------------|---8----------------|


  H        H           E  E  E  E  E  E  E  E     E  E  E  E  S S E  E  E   
--------------------|--------------------------|---------------------------|
--------------------|--------------------------|---------------------------|
--------------------|--------------------------|---------------------------|
--------------------|--------------------------|---------------------------|
--9--------8--------|--7--------7--------7-----|--8-----------5-7-8--7--5--|
--7--------6--------|-----0--0-----0--0-----0--|-----0--0--0---------------|


   W                   Q    Q     E.   E.  E       E  E  E  E  E  E  E  E   
--------------------|--------------------------||--------------------------|
--------------------|--------------------------||--------------------------|
--------------------|-------------------------*||--------------------------|
--------------------|-------------------------*||--------------------------|
--10----------------|--9---------12---10---9---||--7-----7-----7-----7-----|
---8----------------|--7---------10----8---7---||--5-----5-----5-----5-----|


                PM PM PM PM PM PM PM          PM PM PM PM PM PM PM        
  E  E  Q       E  S  S  E  E  E  E  Q        E  S  S  E  E  E  E  Q      
-------------|-----------------------------|-----------------------------|
-------------|-----------------------------|-----------------------------|
-------------|-----------------------------|-----------------------------|
-------------|-----------------------------|--------------9--7-----7~----|
--7-----7----|--7--------7--8--7--5--7~----|--7--------7--------8--------|
--5-----5----|--5--5--5--5-----------------|--5--5--5--5-----------------|


  PM PM PM PM PM PM PM                                   
  E  S  S  E  E  E  E  Q        E  E  S E  E.   E.  E.   
-----------------------------|--------------------------|
-----------------------------|--------------------------|
-----------------------------|--------------------------|
-----------------------------|--------------------------|
--7--------7--8--7--5--7~----|--7---------------7-------|
--5--5--5--5-----------------|--5-----5-7--8~-------8---|


  PM PM PM PM PM PM PM          PM PM PM PM PM PM PM        
  E  S  S  E  E  E  E  Q        E  S  S  E  E  E  E  Q      
-----------------------------|-----------------------------|
-----------------------------|-----------------------------|
-----------------------------|-----------------------------|
-----------------------------|--------------9--7-----7~----|
--7--------7--8--7--5--7~----|--7--------7--------8--------|
--5--5--5--5-----------------|--5--5--5--5-----------------|


  PM PM PM PM PM PM PM                                   
  E  S  S  E  E  E  E  Q        E  E  S E  E.   E.  E.   
-----------------------------|--------------------------|
-----------------------------|--------------------------|
-----------------------------|--------------------------|
-----------------------------|--------------------------|
--7--------7--8--7--5--7~----|--7---------------7-------|
--5--5--5--5-----------------|--5-----5-7--8~-------8---|


  PM PM PM PM PM PM PM          PM PM PM PM PM PM PM        
  E  S  S  E  E  E  E  Q        E  S  S  E  E  E  E  Q      
-----------------------------|-----------------------------|
-----------------------------|-----------------------------|
-----------------------------|-----------------------------|
-----------------------------|--------------9--7-----7~----|
--7--------7--8--7--5--7~----|--7--------7--------8--------|
--5--5--5--5-----------------|--5--5--5--5-----------------|


  PM PM PM PM PM PM PM                                   
  E  S  S  E  E  E  E  Q        E  E  S E  E.   E.  E.   
-----------------------------|--------------------------|
-----------------------------|--------------------------|
-----------------------------|--------------------------|
-----------------------------|--------------------------|
--7--------7--8--7--5--7~----|--7---------------7-------|
--5--5--5--5-----------------|--5-----5-7--8~-------8---|


  PM PM PM PM PM PM PM          PM PM PM PM PM PM PM        
  E  S  S  E  E  E  E  Q        E  S  S  E  E  E  E  Q      
-----------------------------|-----------------------------|
-----------------------------|-----------------------------|
-----------------------------|-----------------------------|
-----------------------------|--------------9--7-----7~----|
--7--------7--8--7--5--7~----|--7--------7--------8--------|
--5--5--5--5-----------------|--5--5--5--5-----------------|


  PM PM PM PM PM PM PM                                   
  E  S  S  E  E  E  E  Q        E  E  S E  E.   E.  E.   
-----------------------------|--------------------------|
-----------------------------|--------------------------|
-----------------------------|--------------------------|
-----------------------------|--------------------------|
--7--------7--8--7--5--7~----|--7---------------7-------|
--5--5--5--5-----------------|--5-----5-7--8~-------8---|


     Q.      E  S S Q      E     W                    Q.     E  S S Q    E   
|------------8--7-8-7~--------|--------------------|------------------------|
|---10~-------------------10--|--8~----------------|--6------8--6-8-6----5--|
|*----------------------------|--------------------|------------------------|
|*----------------------------|--------------------|------------------------|
|-----------------------------|--------------------|------------------------|
|-----------------------------|--------------------|------------------------|


  W                    Q.     E  S S Q     E     W                 
--------------------|---------8--7-8-7--------|-------------------|
--6~----------------|--8------------------10--|--8----------------|
--------------------|-------------------------|-------------------|
--------------------|-------------------------|-------------------|
--------------------|-------------------------|-------------------|
--------------------|-------------------------|-------------------|


   Q.      E   S  S  Q    E      W                    
-----------------------------|----------------------||
-----------------------------|----------------------||
----------12--10-12-10----9--|---------------------*||
--10-------------------------|--10~----------------*||
-----------------------------|----------------------||
-----------------------------|----------------------||


    E  S S E   E  S S  E  S S  E      E  S S E   E  S S  E  S S  E   
-------7-7-8--10--8-7-----8-7-----|------7-7-8--10--8-7-----8-7-----|
---10-----------------10------10--|--10-----------------10------10--|
*---------------------------------|---------------------------------|
*---------------------------------|---------------------------------|
----------------------------------|---------------------------------|
----------------------------------|---------------------------------|


  E  S S E  E  E  E  E  E     E  S S E  E  E  E  E  E   
-----5-5-5--7--8--7--5-----|-----5-5-5--7--8--7--5-----|
--6---------------------8--|--6---------------------8--|
---------------------------|---------------------------|
---------------------------|---------------------------|
---------------------------|---------------------------|
---------------------------|---------------------------|


  E  S S E  E  S S E  S S E     E  S S E  E  S S E  S S E   
-----5-5-7--8--7-5----7-5----|-----5-5-7--8--7-5----7-5----|
--8----------------8------8--|--8----------------8------8--|
-----------------------------|-----------------------------|
-----------------------------|-----------------------------|
-----------------------------|-----------------------------|
-----------------------------|-----------------------------|


  E  E  E   E  E   E  S S E     E  E  E   E  E   E  S S E     
----------------------7-8-7--|----------------------7-8-7---||
---------------8--10---------|---------------8--10----------||
-----7--9--10----------------|-----7--9--10----------------*||
--9--------------------------|--9--------------------------*||
-----------------------------|------------------------------||
-----------------------------|------------------------------||


   W                   H        H             E  E  E  E  E  E  E  E   
--------------------|--------------------||---------------------------|
--------------------|--------------------||---------------------------|
--------------------|--------------------||*--------------------------|
--------------------|--------------------||*--------------------------|
--10----------------|--9--------8--------||---7--------7--------7-----|
---8----------------|--7--------6--------||------0--0-----0--0-----0--|


  E  E  E  E  S S E  E  E     E  E  E  E  E  E  E  E   
---------------------------|--------------------------|
---------------------------|--------------------------|
---------------------------|--------------------------|
---------------------------|--------------------------|
--8-----------5-7-8--7--5--|--7--------7--------7-----|
-----0--0--0---------------|-----0--0-----0--0-----0--|


  E  E  E  E  S S E  E  E     E  E  E  E  E  E  E  E   
---------------------------|--------------------------|
---------------------------|--------------------------|
---------------------------|--------------------------|
---------------------------|--------------------------|
--8-----------5-7-8--7--5--|--7--------7--------7-----|
-----0--0--0---------------|--5--5--5-----5--5-----5--|


  E  E  E  E  S S E  E  E     E  E  E  E  E  E  E  E   
---------------------------|--------------------------|
---------------------------|--------------------------|
---------------------------|--------------------------|
---------------------------|--------------------------|
--8--L--------5-7-8--7--5--|--7--------7--------7-----|
--5--5--5--5---------------|-----0--0-----0--0-----0--|


  E  E  E  E  S S E  E  E      W                   H        H         
---------------------------|--------------------|--------------------|
---------------------------|--------------------|--------------------|
---------------------------|--------------------|--------------------|
---------------------------|--------------------|--------------------|
--8-----------5-7-8--7--5--|--10----------------|--9--------8--------|
-----0--0--0---------------|---8----------------|--7--------6--------|


  E  E  E  E  E  E  E  E     E  E  E  E  S S E  E  E      W                 
--------------------------|---------------------------|--------------------|
--------------------------|---------------------------|--------------------|
--------------------------|---------------------------|--------------------|
--------------------------|---------------------------|--------------------|
--7--------7--------7-----|--8-----------5-7-8--7--5--|--10----------------|
-----0--0-----0--0-----0--|-----0--0--0---------------|---8----------------|


  Q    Q     E.   E.  E       E  E  E  E  E  E  E  E     E  E  Q     
--------------------------||--------------------------|-------------|
--------------------------||--------------------------|-------------|
-------------------------*||--------------------------|-------------|
-------------------------*||--------------------------|-------------|
--9---------12---10---9---||--7-----7-----7-----7-----|--7-----7----|
--7---------10----8---7---||--5-----5-----5-----5-----|--5-----5----|


  PM PM PM PM PM PM PM          PM PM PM PM PM PM PM        
  E  S  S  E  E  E  E  Q        E  S  S  E  E  E  E  Q      
-----------------------------|-----------------------------|
-----------------------------|-----------------------------|
-----------------------------|-----------------------------|
-----------------------------|--------------9--7-----7~----|
--7--------7--8--7--5--7~----|--7--------7--------8--------|
--5--5--5--5-----------------|--5--5--5--5-----------------|


  PM PM PM PM PM PM PM                                   
  E  S  S  E  E  E  E  Q        E  E  S E  E.   E.  E.   
-----------------------------|--------------------------|
-----------------------------|--------------------------|
-----------------------------|--------------------------|
-----------------------------|--------------------------|
--7--------7--8--7--5--7~----|--7---------------7-------|
--5--5--5--5-----------------|--5-----5-7--8~-------8---|


  PM PM PM PM PM PM PM          PM PM PM PM PM PM PM        
  E  S  S  E  E  E  E  Q        E  S  S  E  E  E  E  Q      
-----------------------------|-----------------------------|
-----------------------------|-----------------------------|
-----------------------------|-----------------------------|
-----------------------------|--------------9--7-----7~----|
--7--------7--8--7--5--7~----|--7--------7--------8--------|
--5--5--5--5-----------------|--5--5--5--5-----------------|


  PM PM PM PM PM PM PM                                   
  E  S  S  E  E  E  E  Q        E  E  S E  E.   E.  E.   
-----------------------------|--------------------------|
-----------------------------|--------------------------|
-----------------------------|--------------------------|
-----------------------------|--------------------------|
--7--------7--8--7--5--7~----|--7---------------7-------|
--5--5--5--5-----------------|--5-----5-7--8~-------8---|


  PM PM PM PM PM PM PM          PM PM PM PM PM PM PM        
  E  S  S  E  E  E  E  Q        E  S  S  E  E  E  E  Q      
-----------------------------|-----------------------------|
-----------------------------|-----------------------------|
-----------------------------|-----------------------------|
-----------------------------|--------------9--7-----7~----|
--7--------7--8--7--5--7~----|--7--------7--------8--------|
--5--5--5--5-----------------|--5--5--5--5-----------------|


  PM PM PM PM PM PM PM                                   
  E  S  S  E  E  E  E  Q        E  E  S E  E.   E.  E.   
-----------------------------|--------------------------|
-----------------------------|--------------------------|
-----------------------------|--------------------------|
-----------------------------|--------------------------|
--7--------7--8--7--5--7~----|--7---------------7-------|
--5--5--5--5-----------------|--5-----5-7--8~-------8---|


  PM PM PM PM PM PM PM          PM PM PM PM PM PM PM        
  E  S  S  E  E  E  E  Q        E  S  S  E  E  E  E  Q      
-----------------------------|-----------------------------|
-----------------------------|-----------------------------|
-----------------------------|-----------------------------|
-----------------------------|--------------9--7-----7~----|
--7--------7--8--7--5--7~----|--7--------7--------8--------|
--5--5--5--5-----------------|--5--5--5--5-----------------|


  PM PM PM PM PM PM PM                                   
  E  S  S  E  E  E  E  Q        E  E  S E  E.   E.  E.   
-----------------------------|--------------------------|
-----------------------------|--------------------------|
-----------------------------|--------------------------|
-----------------------------|--------------------------|
--7--------7--8--7--5--7~----|--7---------------7-------|
--5--5--5--5-----------------|--5-----5-7--8~-------8---|


  S S S S S E  S S S S S E  S S    S S S E  S S S S S E.  E.   
--------------------------------|-----------------------------|
--------------------------------|-----------------------------|
--------------------------------|-----------------------------|
--------------------------------|-----------------------------|
------------5------------3------|--------5------------9---8---|
--0-0-0-0-0-3--0-0-0-0-0-1--0-0-|--0-0-0-3--0-0-0-0-0-7---6---|


  S S S S S E  S S S S S E  S S    S S S E  S S S S S E.  E.   
--------------------------------|-----------------------------|
--------------------------------|-----------------------------|
--------------------------------|-----------------------------|
--------------------------------|-----------------------------|
------------5------------3------|--------5------------9---8---|
--0-0-0-0-0-3--0-0-0-0-0-1--0-0-|--0-0-0-3--0-0-0-0-0-7---6---|


  S S S S S E  S S S S S E  S S    S S S E  S S S S S E.  E.   
--------------------------------|-----------------------------|
--------------------------------|-----------------------------|
--------------------------------|-----------------------------|
--------------------------------|-----------------------------|
------------5------------3------|--------5------------9---8---|
--0-0-0-0-0-3--0-0-0-0-0-1--0-0-|--0-0-0-3--0-0-0-0-0-7---6---|


  S S S S S E  S S S S S E  S S    S S S E  S S S S S E.  E.   
--------------------------------|-----------------------------|
--------------------------------|-----------------------------|
--------------------------------|-----------------------------|
--------------------------------|-----------------------------|
------------5------------3------|--------5------------9---8---|
--0-0-0-0-0-3--0-0-0-0-0-1--0-0-|--0-0-0-3--0-0-0-0-0-7---6---|


  S S S S S S S S S S S S S S S S    S S S S S S S S S S E.  E.   
----------------------------------|------------------------------|
----------------------------------|------------------------------|
----------------------------------|------------------------------|
----------------------------------|------------------------------|
----------------------------------|------------------------------|
--0-0-0-0-0-0-0-0-0-0-0-0-0-0-0-0-|--0-0-0-0-0-0-0-0-0-0-7---6---|


  S S S S S E  S S S S S E  S S    S S S E  S S S S S E.  E.   
--------------------------------|-----------------------------|
--------------------------------|-----------------------------|
--------------------------------|-----------------------------|
--------------------------------|-----------------------------|
------------5------------3------|--------5------------9---8---|
--0-0-0-0-0-3--0-0-0-0-0-1--0-0-|--0-0-0-3--0-0-0-0-0-7---6---|


  Q    Q    S S S S S S S S    Q    Q    Q    Q      
----------------------------|----------------------||
----------------------------|----------------------||
----------------------------|----------------------||
----------------------------|----------------------||
----------------------------|--2-------------------||
------------3-3-3-3-3-3-3-3-|--0-------------------||




Duration Legend
---------------
W - whole
H - half
Q - quarter
E - 8th
S - 16th
T - 32nd
X - 64th
. - note dotted
|-n-|  - n-tuplets


Tablature Legend
----------------
L - tied note
x - dead note
g - grace note
(n) - ghost note
> - accentuded note
NH - natural harmonic
AH - artificial harmonic
TH - tapped harmonic
SH - semi harmonic
PH - pitch harmonic
h - hammer on
p - pull off
b - bend
br - bendRelease
pb - preBend
pbr - preBendRelease
brb - bendReleaseBend
\n/ - tremolo bar dip
\n - tremolo bar dive
-/n - tremolo bar Release up
/n\ - tremolo bar inverted dip
/n - tremolo bar return
-\n - tremolo bar Release down
S - shift slide
s - legato slide
/ -  slide into from below or out of upwards
\ -  slide into from above or out of downwards
~ - vibrato
W - wide vibrato
tr - trill
TP - tremolo picking
T - tapping
S - slap
P - pop
< - fade in
^ - brush up
v - brush down

            
            
Suggest correction
Creating personal tab
Creating personal tab
You can edit any tab online and save it as your Personal.

You can edit, replace or remove any tab part or add personal notes – all changes will be seen only by you.

Personal tabs can be accessed anytime from any device, even offline.
Learn more »
Give kudos to tab author, rate the tab!
1 2 3 4 5
comments
print report bad tab
guest
You may want to rate the tab now too:
select rating
Wanna post a correction for this tab? Suggest correction