Oops, an error
Loading. Please wait.

I Dont Wanna Hurt No More tab

version 1
version 1

Whole song

Interactive

by Anouk
17,833 views 18 this week
no commentswrite comment
1 2 3 4 5
x 7
add to favorites
×
Save as Personal and add changes to this tab that will be seen only by you. Learn more ›
×
You can save this tab as Personal to edit and correct it or add notes. All changes will be seen only by you. Learn more »
launch autoscroll
font size
0
reset
how to read this tab
guitar tuner
edit
Autoscroll
slow
fast
+/-
esc
set tempo
stop
ANOUK - I DON'T WANNA HURT


I normally don't do tabs, but this song's worth tabbing =D
There could be mistakes in it, I didn't triple check it, but it sounds kinda right (I 
this one out on a slightly detuned guitar, so beware!).
If you find any mistakes, please contact me: astriddeneef@hotmail.com.


CAPO: 4th Fret


Intro

e|---------------------------------------------------------------3-|
B|-3--------3--------1--------1--------3--------3--------1---------|
G|-----0--------2--------0--------0--------0--------2--------0-----|
D|---0---0----0---0----2---2----2---2----0---0----0---0----2---2---|
A|-----------------------------------------------------------------|
E|-3--------3--------3--------3--------3--------3--------3---------|

Verse:

e|---------------------------------------------------------------3--3---2---|
B|-3--------3--------1--------1-----1--0-----0--1-----1--1--------------3---|
G|-----0--------2--------0--------0--------0--------2---------0-------2---2-|
D|---0---0----0---0----2---2----2--------2--------2---------2-------0-------|
A|----------------------------------------------0--------3------------------|
E|-3--------3--------3--------3--------0------------------------------------|


Pre-chorus & Chorus:

|------------------------------------------------------------|
|--3-----3--3-----3--3------3--3------3--3-----3--3-----3--3-|
|------0--------0--------0---------0---------0--------0------|
|----0--------2--------4---------4---------2--------0--------|
|--2--------3--------5---------5---------0--------2--------5-|
|------------------------------------------------------------|

|----------------------------------------------------------------|
|-3-----------3------3------------0------------3---------3-----3-|
|-------0----------0----------0h2----2-0---0-------0---------0---|
|----2----2------2----------0------------2-------2---2-----2-----|
|-3-----------3--------------------------------3---------3-------|
|------------------------3---------------------------------------|

------------------------------------1---------------------------------|
--0--------0--------0------1-----------1-------------------0--------0-|
--------0--------0-----0---------2--------2-----2---2----2----1---1---|
-----2--------2---------------3--------------3---------2--------2-----|
----------------------------------------------------------------------|
--0------------------------1------------------------0---------0-------|

------------------------------|-------------0-----------|
--1-----1---1-----1-----------|------0-1--3--------0-1--|
------2---------2-----2---2-1-|------2-2-----------2-2--|
----2---------2---------2-----|----2-------------2------|
--0---------------------------|--0-------------0--------|
------------3---------0-------|-------------------------|

Verse
Pre-Chorus
Chorus

Bridge:

|--1-----1---------------------------------------------------|
|------1----1---------------0-------------1-----1---1-----1--|
|----2--------2---2---1---1-----2---4---------2---------2----|
|---------------3-------0---------0---0-----2---------2------|
|-----------------------------------------0------------------|
|--1------------------0---------2---4---------------3--------|

|----------------------1-----1-----------------------|
|--1-----1---------1-------1-----1---------------1---|
|------2-----2---2-------2---------2---2---2---2-----|
|----0---------0---------------------3-------2-------|
|----------------------------------------------------|
|--2---------2---------1-------------------0---------|

Chorus


Lyrics:

Verse:
We're breaking things we can't repair
and none of us will take the blame
No, nothing can be done this time
All the memories that we made
I threw them all away
There's no need to talk it over

Pre-chorus:
Don't let me get you down
Let's just move on
I am setting you free

Chorus:
'Cause I don't wanna hurt no more
No, I don't wanna make you go through one more rainy day
No, I don't wanna hurt no more
Strange enough I always knew
I'm taking off today
Don't wanna hurt no more

Verse:
The darkness you left in my soul
How do we know how much we've lost?
Will the moon be shining as bright as before?
And as I'm singing this song
the tears well up in my eyes
And I will always wonder
why I will never have
the life I wanted
Find More lyrics at www.sweetslyrics.com
Now I'm letting it go

Chorus:
'Cause I don't wanna hurt no more
No, I don't wanna make you go through one more rainy day
No, I don't wanna hurt no more
There's not much more to say
'Cause it's to late now
I won't hurt no more

So I wait 'til morning comes
You made it clear that it has been only pain loving me
The things that we won't do for love
I am setting you free

'Cos I don't wanna hurt no more
I don't wanna make you go through one more rainy day
No, I don't wanna hurt no more
Strange enough I always knew I'm taking off today

I am letting you go...

            
            
Suggest correction
Creating personal tab
Creating personal tab
You can edit any tab online and save it as your Personal.

You can edit, replace or remove any tab part or add personal notes – all changes will be seen only by you.

Personal tabs can be accessed anytime from any device, even offline.
Learn more »
comments
print report bad tab
guest
You may want to rate the tab now too:
select rating
Wanna post a correction for this tab? Suggest correction