Oops, an error
Loading. Please wait.

If I Go tab

version 2
version 2

Whole song

Interactive

by Anouk
6,637 views 12 this week
3 commentsread comments
1 2 3 4 5
2 more votes to show rating
add to favorites
×
Save as Personal and add changes to this tab that will be seen only by you. Learn more ›
×
You can save this tab as Personal to edit and correct it or add notes. All changes will be seen only by you. Learn more »
launch autoscroll
font size
0
reset
how to read this tab
guitar tuner
edit
Autoscroll
slow
fast
+/-
esc
set tempo
stop
Author
ARTIST: ANOUK
SONG: IF I GO
ALBUM: WHO’S YOUR MOMMA (2007)

Standard tuning (E A D G B E)


Intro/Verse:

E --------------------|
B --------------------|
G --------------------|   repeat this until pre-chorus.
D -0-2-2-0-7-5--------|
A -0-2-2-0-7-5--------|
E --------------------|


Pre-Chorus:

-------------------------|   
-------------------------|   
-------------------------|   
-555555552222222222222222|   
-333333330000000022222222|   
-------------------------| x3

------------|
------------|
------------|
-55555555-2-|
-33333333-0-|
------------|

Chorus:

-----------------------------------------------------------------------------------|
-----------------------------------------------------------------------------------|
-----------------------------------------------------------------------------------|
5555555522222222-0-2-2-0-7-5--0-2-2-0-7-5--5555555522222222-2222222255555555-------|
3333333300000000-0-2-2-0-7-5--0-2-2-0-7-5--3333333300000000-2222222255555555-------|
-----------------------------------------------------------------------------------|  

---------------------------------------------------------------------------|
---------------------------------------------------------------------------|
---------------------------------------------------------------------------|
5555555522222222-0-2-2-0-7-5--0-2-2-0-7-5--55555555222222227777777777777777|
3333333300000000-0-2-2-0-7-5--0-2-2-0-7-5--33333333000000005555555555555555|
---------------------------------------------------------------------------|

Verse:

--------------------|
--------------------|
--------------------|  
-0-2-2-0-7-5--------|
-0-2-2-0-7-5--------|
--------------------|  x12


And then again the pre-chorus:

-------------------------|   
-------------------------|   
-------------------------|   
-555555552222222222222222|   
-333333330000000022222222|   
-------------------------| x3

------------|
------------|
------------|
-55555555-2-|
-33333333-0-|
------------|



Chorus:

-----------------------------------------------------------------------------------|
-----------------------------------------------------------------------------------|
-----------------------------------------------------------------------------------|
5555555522222222-0-2-2-0-7-5--0-2-2-0-7-5--5555555522222222-2222222255555555-------|
3333333300000000-0-2-2-0-7-5--0-2-2-0-7-5--3333333300000000-2222222255555555-------|
-----------------------------------------------------------------------------------|  

---------------------------------------------------------------------------|
---------------------------------------------------------------------------|
---------------------------------------------------------------------------|
5555555522222222-0-2-2-0-7-5--0-2-2-0-7-5--55555555222222227777777777777777|
3333333300000000-0-2-2-0-7-5--0-2-2-0-7-5--33333333000000005555555555555555|
---------------------------------------------------------------------------|

-----------------------------------------------------------------------------------|
-----------------------------------------------------------------------------------|
-----------------------------------------------------------------------------------|
5555555522222222-0-2-2-0-7-5--0-2-2-0-7-5--5555555522222222-2222222255555555-------|
3333333300000000-0-2-2-0-7-5--0-2-2-0-7-5--3333333300000000-2222222255555555-------|
-----------------------------------------------------------------------------------|  x2

---------------------------------------------------------------------------|
---------------------------------------------------------------------------|
---------------------------------------------------------------------------|
5555555522222222-0-2-2-0-7-5--0-2-2-0-7-5--55555555222222227777777777777777|
3333333300000000-0-2-2-0-7-5--0-2-2-0-7-5--33333333000000005555555555555555|
---------------------------------------------------------------------------|

Outro:

--------------------|
--------------------|
--------------------|   
-0-2-2-0-7-5--------|
-0-2-2-0-7-5--------|
--------------------| x12


This is my first tab, I hope you can use it. If there’s something wrong, comment please!

            
            
Suggest correction
Creating personal tab
Creating personal tab
You can edit any tab online and save it as your Personal.

You can edit, replace or remove any tab part or add personal notes – all changes will be seen only by you.

Personal tabs can be accessed anytime from any device, even offline.
Learn more »
Give kudos to tab author, rate the tab!
1 2 3 4 5
comments
print report bad tab
3 comments total.
+1 reply
No_way_back 126 Jan 28, 2010 02:26 AM

Not a great tab..

The intro sounds ok, but if you listen close you can hear them playing in a lower tuning (something like DADGBe). The intro would be more like:

E --------------------|
B --------------------|
G --------------------|
D --------------------|
A -0-2-2-0-7-5--------|
D -0-2-2-0-7-5--------|

And well the rest of the tab.. kinda.. sucks..

0 reply
No_way_back 126 Jan 28, 2010 02:32 AM

Correction to myself;

I think the tuning is even lower, cause it's not

E --------------------|
B --------------------|
G --------------------|
D --------------------|
A -0-2-2-0-7-5--------|
D -0-2-2-0-7-5--------|

but (using the same tuning):
E --------------------|
B --------------------|
G --------------------|
D --------------------|
A -?-1-1-?-6-4--------|
D -?-1-1-?-6-4--------|


So probably their guitars are tuned a whole step down..

0 reply
xBritt 30 Mar 25, 2010 09:01 AM

Yeah that was my problem too. ;P
But there's a difference between the live- and albumversion, and I wanted to create something that you can use by both of them.

But you're right, it sucks. I just couldn't find out what else it was.

guest
You may want to rate the tab now too:
select rating
Wanna post a correction for this tab? Suggest correction