Oops, an error
Loading. Please wait.

Nobodys Wife tab

version 1
version 1

Whole song

by Anouk
136,326 views 147 this week
3 commentsread comments
1 2 3 4 5
x 31
add to favorites
×
Save as Personal and add changes to this tab that will be seen only by you. Learn more ›
×
You can save this tab as Personal to edit and correct it or add notes. All changes will be seen only by you. Learn more »
launch autoscroll
font size
0
reset
how to read this tab
guitar tuner
backing track
0:00
0:00
edit
Autoscroll
slow
fast
+/-
esc
set tempo
stop
Author
Unregistered
         Title : Nobody's Wife
        Artist : Anouk
         Album : Together Alone
Transcribed by : Michael Sørensen (MSGunde@post1.com)

This is the full version of Anouk's Kick-Ass 'Nobody's Wife'. I worked out the
solo in about 2 hours, and I think it sounds pretty acurate.
Please E-Mail me at MSGunde@post1.com, me if I have made any mistakes, or if
you don't agree with what I have transcriped.
I haven't noted how much each bend is, but it is easy to hear, so just play
along to get the feel.
================================================================================

Chord Diagrams (low to high)
-----------------------------
        E A D G B E
-----------------------------
Em      0 2 2 X X X
C       X 3 5 5 X X
D       X 5 7 7 X X
Am      5 7 7 X X X
G       3 5 5 X X X
G/F#    2 4 4 X X X
F/C     X 3 3 2 1 X

Note:
  0: Strike this string clean
  x: Don't strike this string
  1-7: Fret numbers

Example:
  The cord 0 2 2 X X X would look like this in tablature:
    E|------                 E|-------------------|
    B|------                 B|-------------------|
    G|------ and X 3 5 5 X X like this: G|--5-----|
    D|--2---                 D|--5----------------|
    A|--2---                 A|--3----------------|
    E|--0---                 E|-------------------|


======================================================================


Intro (cln. guitar) C           Am                 G       G/F#
Tune down ½ step

E----------0-----|------------|------------------|-------------------|
B-------0------0-|-------3----|----------0--1--0-|-------------------|
G----0-----------|----0-----0-|------------------|-------0-----2-----|
D----------------|------------|-0-----2----------|----0-----------0--|
A----------------|-3----------|----0-------------|-------------------|
E--0-------------|------------|------------------|-3--------2--------|
(Rhy Fig. 1)                                       (End Rhy. Fig. 1)

    Em              C            Am                 G      G/F#


E-----------0-----|------------|------------------|------------------|
B--------0------0-|-------3----|-------0--1--0----|------------------|
G-0---0-----------|----0-----0-|----------------0-|-------0-----2----|
D-----------------|------------|----2-------------|----0-----------0-|
A-----------------|-3----------|-0----------------|------------------|
E---0-------------|------------|------------------|-3--------2-------|
                                                            I'm sorry

      Em              C            Am                 G       G/F#


E-|-----------0-----|------------|------------------|----------------|
B-|--------0------0-|-------3----|-------0--1--0----|----------------|
G-|-0---0-----------|----0-----0-|----------------0-|-------0-----2--|
D-|-----------------|------------|----2-------------|----0-----------|
A-|-----------------|-3----------|-0----------------|----------------|
E-|---0-------------|------------|------------------|-3--------2-----|
   for the times that I made you scream for the times that I killed

        Em               C            Am                 G       G/F#


E|---|-----------0-----|------------|------------------|-------------|
B|---|--------0------0-|-------3----|-------0--1--0----|-------------|
G|---|-0---0-----------|----0-----0-|----------------0-|-------0-----|
D|-0-|-----------------|------------|----2-------------|----0--------|
A|---|-----------------|-3----------|-0----------------|-------------|
E|---|---0-------------|------------|------------------|-3--------2--|
  your dreams for the times that I made your whole world rumble

           Em               C            Am                 G


E|------|-----------0-----|------------|------------------|----------|
B|------|--------0------0-|-------3----|-------0--1--0----|----------|
G|-2----|-----0-----------|----0-----0-|----------------0-|-------0--|
D|----0-|-0---------------|------------|----2-------------|----0-----|
A|------|-----------------|-3----------|-0----------------|----------|
E|------|---0-------------|------------|------------------|-3--------|
                 for the times that I made you cry for the times that

   G/F#       Em               C                     F/C
                                       v/Distortion     Drums enter

E|---------|-----------0-----|------------|---------|----------------|
B|---------|--------0------0-|-------3----|---------|-1--------------|
G|----2----|-0---0-----------|----0-------|---------|-2--------------|
D|-------0-|-----------------|----------0-|---------|-3--------------|
A|---------|-----------------|-3----------|---------|-3--------------|
E|-2-------|---0-------------|------------|---------|----------------|
  I told you lies   for the times that I watched and let you stumble

Chorus: Em             C                 Am               G   G/F#
w/Distorion

E-|-----------------|-----------------|----------------|-------------|
B-|-----------------|-----------------|----------------|-------------|
G-|-----------------|--5--5--x-x-x-x--|----------------|-------------|
D-|--2--2--x-x-x-x--|--5--5--x-x-x-x--|--7-7--7--7--7--|--5----4-----|
A-|--2--2--x-x-x-x--|--3--3--x-x-x-x--|--7-7--7--7--7--|--5----4---x-|
E-|--0--0--x-x-x-x--|-----------------|--5-5--5--5--5--|--3----2---x-|
   It's too baad         but that's     me     (Ha-ha....)  what goes

     Em                C                 Am               G   G/F#


E-|-----------------|-----------------|----------------|-------------|
B-|-----------------|-----------------|----------------|-------------|
G-|-----------------|--5--5--x-x-x-x--|----------------|-------------|
D-|--2--2--x-x-x-x--|--5--5--x-x-x-x--|--7-7--7--7--7--|--5----4-----|
A-|--2--2--x-x-x-x--|--3--3--x-x-x-x--|--7-7--7--7--7--|--5----4---x-|
E-|--0--0--x-x-x-x--|-----------------|--5-5--5--5--5--|--3----2---x-|
    around     comes around      you'll see                  that I

     Am           D                  G            C


E-|------------|------------------|------------|--------------------|
B-|------------|------------------|------------|--------------------|
G-|------------|--7---x-7-7-------|------------|--5----x-5-5--------|
D-|--7---7--x--|--7---x-7-7--x-x--|--5---5-----|--5----x-5-5--x-x---|
A-|--7---7--x--|--5---x-5-5--x-x--|--5---5--x--|--3----x-3-3--x-x---|
E-|--5---5--x--|------------------|--3---3--x--|--------------------|
 can carry                   the burden of    pain    cause it ain't

    Am           D                  G            C


E|------------|------------------|------------|-------------------|--|
B|------------|------------------|------------|-------------------|--|
G|------------|--7---x-7-7-------|------------|--5----x-5-5-------|--|
D|--7---7--x--|--7---x-7-7--x-x--|--5---5-----|--5----x-5-5--x-x--|--|
A|--7---7--x--|--5---x-5-5--x-x--|--5---5--x--|--3----x-3-3--x-x--|--|
E|--5---5--x--|------------------|--3---3--x--|-------------------|--|
  the first time          that a man goes in - sane when I spread

   Am           D                  G            C                   Am


E|-----------|------------------|------------|-------------------|----|
B|-----------|------------------|------------|-------------------|----|
G|-----------|--7---x-7-7-------|------------|--5----x-5-5-------|----|
D|-7---7--x--|--7---x-7-7--x-x--|--5---5-----|--5----x-5-5--x-x--|--7-|
A|-7---7--x--|--5---x-5-5--x-x--|--5---5--x--|--3----x-3-3--x-x--|--7-|
E|-5---5--x--|------------------|--3---3--x--|-------------------|--5-|
   my wings             to   embrace him for life sucking out his love

             D                  G            C       (Acc. guitar)


E---------|------------------|------------|--------------|----------0-|
B---------|------------------|------------|--------------|-------0----|
G---------|--7---x-7-7-------|------------|--5-----------|----0-------|
D---7--x--|--7---x-7-7--x-x--|--5---5-----|--5-----------|------------|
A---7--x--|--5---x-5-5--x-x--|--5---5--x--|--3-----------|------------|
E---5--x--|------------------|--3---3--x--|--------------|--0---------|
 ah, I'll   never be            nobody's   wife

         C              Am               G       G/F#        Em


E|-----|------------|------------------|------------------|----------|
B|---0-|-------3----|----------0--1--0-|------------------|--------0-|
G|-----|----0-----0-|------------------|-------0-----2----|-0---0----|
D|-----|------------|-0-----2----------|----0-----------0-|----------|
A|-----|-3----------|----0-------------|------------------|----------|
E|-----|------------|------------------|-3--------2-------|---0------|


           C               Am              G       G/F#         Em
w/Fill 1                              w/Fill 2

E--0-----|------------|------------------|------------------|--------|
B------0-|-------3----|----------0--1--0-|------------------|--------|
G--------|----0-----0-|------------------|-------0-----2----|-0---0--|
D--------|------------|-0-----2----------|----0-----------0-|--------|
A--------|-3----------|----0-------------|------------------|--------|
E--------|------------|------------------|-3--------2-------|---0----|
                                                   I'    - m sorry

              C              Am               G       G/F#        Em


E|----0-----|------------|------------------|------------------|------|
B|-0------0-|-------3----|----------0--1--0-|------------------|------|
G|----------|----0-----0-|------------------|-------0-----2----|-0--0-|
D|----------|------------|-0-----2----------|----0-----------0-|------|
A|----------|-3----------|----0-------------|------------------|------|
E|----------|------------|------------------|-3--------2-------|--0---|
  for the times that I did'nt come home left you lying in that bed

              C              Am               G       G/F#         Em
                                       w/Fill 3

E-----0-----|------------|------------------|------------------|-----|
B--0------0-|-------3----|----------0--1--0-|------------------|-----|
G-----------|----0-----0-|------------------|-------0-----2----|-0---|
D-----------|------------|-0-----2----------|----0-----------0-|-----|
A-----------|-3----------|----0-------------|------------------|-----|
E-----------|------------|------------------|-3--------2-------|---0-|
  alone flying high in the sky when you needed my shoulder

                 C              Am               G       G/F#
                                   w/Fill 1

E|-------0-----|------------|------------------|------------------|---|
B|----0------0-|-------3----|----------0--1--0-|------------------|---|
G|-0-----------|----0-----0-|------------------|-------0-----2----|-0-|
D|-------------|------------|-0-----2----------|----0-----------0-|---|
A|-------------|-3----------|----0-------------|------------------|---|
E|-------------|------------|------------------|-3--------2-------|---|
 You're like a stone hanging round my neck, see cut it loose before it

   Em              C               Am              G       G/F#


E|---------0-----|------------|------------------|-------------------|
B|------0------0-|-------3----|----------0--1--0-|-------------------|
G|---0-----------|----0-----0-|------------------|-------0-----2-----|
D|---------------|------------|-0-----2----------|----0-----------0--|
A|---------------|-3----------|----0-------------|-------------------|
E|-0-------------|------------|------------------|-3--------2--------|
 breaks my back, see I've gotta say what I feel before I crow older

    Em              C               Am              G       G/F#


E-----------0-----|------------|------------------|------------------|
B--------0------0-|-------3----|----------0--1--0-|------------------|
G-0---0-----------|----0-----0-|------------------|-------0-----2----|
D-----------------|------------|-0-----2----------|----0-----------0-|
A-----------------|-3----------|----0-------------|------------------|
E---0-------------|------------|------------------|-3--------2-------|
 Sorry but I ain't gonna change my way you know I've tried but I'm

      Em              C           F/C                  Chorus: Em
                              w/Distortion        w/Distortion

E-|-----------0-----|------------|------------|-------------|--------|
B-|--------0------0-|-------3----|-1----------|-------------|--------|
G-|-0---0-----------|----0-------|-2----------|-------------|--------|
D-|-----------------|----------0-|-3----------|-------------|--2--2--|
A-|-----------------|-3----------|-3----------|-------------|--2--2--|
E-|---0-------------|------------|------------|-------------|--0--0--|
 still the same  I've got to doit my way              It's to  ba-ad

               C                 Am               G   G/F#      Em


E|----------|-----------------|----------------|-------------|-------|
B|----------|-----------------|----------------|-------------|-------|
G|----------|--5--5--x-x-x-x--|----------------|-------------|-------|
D|-x-x-x-x--|--5--5--x-x-x-x--|--7-7--7--7--7--|--5----4-----|--2--2-|
A|-x-x-x-x--|--3--3--x-x-x-x--|--7-7--7--7--7--|--5----4---x-|--2--2-|
E|-x-x-x-x--|-----------------|--5-5--5--5--5--|--3----2---x-|--0--0-|
                     but that's me              what goes  a - round

                C                 Am               G   G/F#      Am


E|-----------|-----------------|----------------|-------------|------|
B|-----------|-----------------|----------------|-------------|------|
G|-----------|--5--5--x-x-x-x--|----------------|-------------|------|
D|--x-x-x-x--|--5--5--x-x-x-x--|--7-7--7--7--7--|--5----4-----|--7---|
A|--x-x-x-x--|--3--3--x-x-x-x--|--7-7--7--7--7--|--5----4---x-|--7---|
E|--x-x-x-x--|-----------------|--5-5--5--5--5--|--3----2---x-|--5---|
        comes around      you'll see                 that I can carry

            D                  G            C                   Am


E|-------|------------------|------------|-------------------|--------|
B|-------|------------------|------------|-------------------|--------|
G|-------|--7---x-7-7-------|------------|--5----x-5-5-------|--------|
D|-7--x--|--7---x-7-7--x-x--|--5---5-----|--5----x-5-5--x-x--|--7---7-|
A|-7--x--|--5---x-5-5--x-x--|--5---5--x--|--3----x-3-3--x-x--|--7---7-|
E|-5--x--|------------------|--3---3--x--|-------------------|--5---5-|
                          the burden of pain  cause it ain't the first

          D                  G            C                   Am


E|-----|------------------|------------|-------------------|---------|
B|-----|------------------|------------|-------------------|---------|
G|-----|--7---x-7-7-------|------------|--5----x-5-5-------|---------|
D|--x--|--7---x-7-7--x-x--|--5---5-----|--5----x-5-5--x-x--|--7---7--|
A|--x--|--5---x-5-5--x-x--|--5---5--x--|--3----x-3-3--x-x--|--7---7--|
E|--x--|------------------|--3---3--x--|-------------------|--5---5--|
  time              that a man goes in - sane when I spread my wings

         D                  G            C                   Am
                                                       w/Fill 4

E|----|------------------|------------|-------------------|-----------|
B|----|------------------|------------|-------------------|-----------|
G|----|--7---x-7-7-------|------------|--5----x-5-5-------|-----------|
D|-x--|--7---x-7-7--x-x--|--5---5-----|--5----x-5-5--x-x--|--7---7--x-|
A|-x--|--5---x-5-5--x-x--|--5---5--x--|--3----x-3-3--x-x--|--7---7--x-|
E|-x--|------------------|--3---3--x--|-------------------|--5---5--x-|
                to  embrace him for life I'm sucking out his love ah,

      D                  G            C         Solo Em
                                                Guitar

E--|------------------|------------|--------------|-------------------|
B--|------------------|------------|--------------|--15b17--15b17-----|
G--|--7---x-7-7-------|------------|--5-----------|-------------------|
D--|--7---x-7-7--x-x--|--5---5-----|--5-----------|-------------------|
A--|--5---x-5-5--x-x--|--5---5--x--|--3-----------|-------------------|
E--|------------------|--3---3--x--|--------------|-------------------|
 I'll never be         no  -  body's wife yeah

   C                                                           Am


E|-------------------------------------------------------------|------|
B|--15b17r(15)p12----12----------------------------------------|------|
G|----------------14----14b16r(14)p12-------14b16r(14)p12------|------|
D|------------------------------------14-12---------------14---|-12---|
A|-------------------------------------------------------------|------|
E|-------------------------------------------------------------|------|


     G    G/F#   Em                   C                    Am


E---------------------------------------------------------------------|
B----------------------------------------12-12-x-12---x-12-x-12-x-12--|
G----------------------------------------12-12-x-12---x-12-x-12-x-12--|
D---------------------------------------------------------------------|
A-14-12/10-12p10----10----10-12p10-12/14------------------------------|
E----------------12----12---------------------------------------------|


                               G      G/F#      Em


E-----------------------------------------------15p12-15p12----12-15p-|
B-x-12-12-12-12-x-12-x-12-x-12-x-12-12-12-12-12-------------15--------|
G-x-12-12-12-12-x-12-x-12-x-12-x-12-12-12-12-12-----------------------|
D---------------------------------------------------------------------|
A---------------------------------------------------------------------|
E---------------------------------------------------------------------|


            C                                    Am


E|-12-15p12----12-15p12-15p12-----12-15p12-15p12----12-|-15p12-15p12--|
B|----------15----------------15-----------------15----|--------------|
G|-----------------------------------------------------|--------------|
D|-----------------------------------------------------|--------------|
A|-----------------------------------------------------|--------------|
E|-----------------------------------------------------|--------------|


                           G    G/F#   Em                      C


E|----12--------------------------------------------------------------|
B|-15----15p12-15p12----12--------------------------------------------|
G|-------------------14----14p12----14-14-14b-14b-12----------12b--14-|
D|-------------------------------14------------------14-14-14~--------|
A|--------------------------------------------------------------------|
E|--------------------------------------------------------------------|


               Am                     G           G/F#     Em


E|-------------12~-15-12-15-17b19-----17b19--17p15------|------------|
B|-12-15-12-15-------------------------------------17~--|------------|
G|------------------------------------------------------|------------|
D|------------------------------------------------------|--2--2--x-x-|
A|------------------------------------------------------|--2--2--x-x-|
E|------------------------------------------------------|--0--0--x-x-|
                                                It's to   ba- ad

           C                 Am               G   G/F#      Em


E|------|-----------------|----------------|-------------|------------|
B|------|-----------------|----------------|-------------|------------|
G|------|--5--5--x-x-x-x--|----------------|-------------|------------|
D|-x-x--|--5--5--x-x-x-x--|--7-7--7--7--7--|--5----4-----|--2--2--x-x-|
A|-x-x--|--3--3--x-x-x-x--|--7-7--7--7--7--|--5----4---x-|--2--2--x-x-|
E|-x-x--|-----------------|--5-5--5--5--5--|--3----2---x-|--0--0--x-x-|
                 but that's me                  what goes around

           C                 Am               G   G/F#      Am


E|------|-----------------|----------------|-------------|-----------|
B|------|-----------------|----------------|-------------|-----------|
G|------|--5--5--x-x-x-x--|----------------|-------------|-----------|
D|-x-x--|--5--5--x-x-x-x--|--7-7--7--7--7--|--5----4-----|--7---7--x-|
A|-x-x--|--3--3--x-x-x-x--|--7-7--7--7--7--|--5----4---x-|--7---7--x-|
E|-x-x--|-----------------|--5-5--5--5--5--|--3----2---x-|--5---5--x-|
   comes around      you'll see                that  I  can carry

      D                  G            C                   Am


E--|------------------|------------|-------------------|-------------|
B--|------------------|------------|-------------------|-------------|
G--|--7---x-7-7-------|------------|--5----x-5-5-------|-------------|
D--|--7---x-7-7--x-x--|--5---5-----|--5----x-5-5--x-x--|--7---7--x---|
A--|--5---x-5-5--x-x--|--5---5--x--|--3----x-3-3--x-x--|--7---7--x---|
E--|------------------|--3---3--x--|-------------------|--5---5--x---|
                  the burden of    pain cause it ain't the first time

   D                  G            C                   Am           D


E------------------|------------|-------------------|------------|----|
B------------------|------------|-------------------|------------|----|
G--7---x-7-7-------|------------|--5----x-5-5-------|------------|--7-|
D--7---x-7-7--x-x--|--5---5-----|--5----x-5-5--x-x--|--7---7--x--|--7-|
A--5---x-5-5--x-x--|--5---5--x--|--3----x-3-3--x-x--|--7---7--x--|--5-|
E------------------|--3---3--x--|-------------------|--5---5--x--|----|
 oh, no          that a man goes insane cause when I spread my wings

                   G            C                        Am
                                                       break

E---------------|------------|-------------------|-----------|-------|
B---------------|------------|-------------------|-----------|-------|
G---x-7-7-------|------------|--5----x-5-5-------|-----------|-------|
D---x-7-7--x-x--|--5---5-----|--5----x-5-5--x-x--|-------7---|-------|
A---x-5-5--x-x--|--5---5--x--|--3----x-3-3--x-x--|-------7---|-------|
E---------------|--3---3--x--|-------------------|-------5---|-------|
        to    embrace him  for life I'm sucking out his love I, I'll

   D      G            C   Em                C                 Am
 break

E|-----|------------|---------------------|-----------------|---------|
B|-----|------------|---------------------|-----------------|---------|
G|-7---|------------|--5------------------|--5--5--x-x-x-x--|---------|
D|-7---|--5---5--5--|--5---2--2--x-x-x-x--|--5--5--x-x-x-x--|--7-7--7-|
A|-7---|--5---5--5--|--3---2--2--x-x-x-x--|--3--3--x-x-x-x--|--7-7--7-|
E|-5---|--3---3--3--|------0--0--x-x-x-x--|-----------------|--5-5--5-|
 never be no-bo-dy's  wife                            I'll never be,

             G   G/F#     Em                C                 Am


E|--------|-----------|------------------|-----------------|---------|
B|--------|-----------|------------------|-----------------|---------|
G|--------|-----------|------------------|--5--5--x-x-x-x--|---------|
D|--7--7--|--5----4---|---2--2--x-x-x-x--|--5--5--x-x-x-x--|--7-7--7-|
A|--7--7--|--5----4---|---2--2--x-x-x-x--|--3--3--x-x-x-x--|--7-7--7-|
E|--5--5--|--3----2---|---0--0--x-x-x-x--|-----------------|--5-5--5-|
       never be, never gonna be never gonna be never gonna be no - bo

             G   G/F#     Em                C                 Am
                       v/Fill 5

E|--------|-----------|------------------|-----------------|---------|
B|--------|-----------|------------------|-----------------|---------|
G|--------|-----------|------------------|--5--5--x-x-x-x--|---------|
D|--7--7--|--5----4---|---2--2--x-x-x-x--|--5--5--x-x-x-x--|--7-7--7-|
A|--7--7--|--5----4---|---2--2--x-x-x-x--|--3--3--x-x-x-x--|--7-7--7-|
E|--5--5--|--3----2---|---0--0--x-x-x-x--|-----------------|--5-5--5-|
    -dy's  wife          no    -   bo   -   dy    yeah       no    -

             G   G/F#     Em                C                 Am
                                                         Start fade

E|--------|-----------|------------------|-----------------|---------|
B|--------|-----------|------------------|-----------------|---------|
G|--------|-----------|------------------|--5--5--x-x-x-x--|---------|
D|--7--7--|--5----4---|---2--2--x-x-x-x--|--5--5--x-x-x-x--|--7-7--7-|
A|--7--7--|--5----4---|---2--2--x-x-x-x--|--3--3--x-x-x-x--|--7-7--7-|
E|--5--5--|--3----2---|---0--0--x-x-x-x--|-----------------|--5-5--5-|
   bo   -   dy   yeah      no                no           [I'm never,

             G   G/F#
               Fade out...  Fill 1          Fill 2

E|--------|-----------|-----|*--12p14~-*|--|*------------------*|----|
B|--------|-----------|-----|*---------*|--|*------------------*|----|
G|--------|-----------|-----|*---------*|--|*--14b15r(14)p12~--*|----|
D|--7--7--|--5----4---|-----|*---------*|--|*------------------*|----|
A|--7--7--|--5----4---|-----|*---------*|--|*------------------*|----|
E|--5--5--|--3----2---|-----|*---------*|--|*------------------*|----|
 gonna be, never gonna be]x2


  Fill 3                           Fill 4  next 4 bars

E|*--------------------------*|--*|---12tr(15)-------*|--------------|
B|*--------------------------*|--*|------------------*|--------------|
G|*--14---14p12~-----12~-----*|--*|------------------*|--------------|
D|*---------------14-----14--*|--*|------------------*|--------------|
A|*--------------------------*|--*|------------------*|--------------|
E|*--------------------------*|--*|------------------*|--------------|

E|*--------------|----------|-----|------------*|--------------------|
B|*--------------|----------|-----|------------*|--------------------|
G|*--------------|----14b16-|-----|---12-------*|--------------------|
D|*----\12~------|----------|-----|------14~---*|--------------------|
A|*--------------|----------|-----|------------*|--------------------|
E|*--------------|----------|-----|------------*|--------------------|
      no - bo - dy   yeah  no - bo - dy  yeah




Version 2


Song            : Nobody's Wife
Artist  : Anouk
Version : CD Single
Album           : Together Alone
Authors : Anouk Teeuwe, Bart van Veen, Satindra Kalpoe
Publisher       : Bouncin'Balls / TBM INT.C.V.
------------------------------------------------------------------------------
Tabbed by       : Richard de Jong, The Netherlands
Date        : December 29, 1997
E-Mail      : richard.jong@tip.nl

==============================================================================

If you have any comments regarding the song please let me know.
This is the first time I tabbed a song in my life. I never had any
guitar lessons so probably there will be some mistakes.

This document only displays the patterns for the first guitar. If
anyone can tab the second guitar and the solo, please do so, and
let me know.

==============================================================================

Tuning  Tune Guitar in Eb (E-Flat)
                (On the CD it's a bit more down than E-Flat.)

==============================================================================

Patterns for First Guitar

Pattern 1

       1.1              1.2              1.3              1.4
          [----------0-----|----------------|----------------|----------------]
          [-------0-------0|-------3--------|----------1-----|----------------]
          [----0-----------|----0-----0-----|-------2-------0|-----0-----2----]
          [----------------|---------------0|----2-----------|---0----------0-]
          [----------------|3---------------|0---------------|----------------]
          [0---------------|----------------|----------------|3-------2-------]

Pattern 2
       2.1              2.2              2.3              2.4
          [----------0-----|----------------|----------------|----------------]
          [-------0-------0|-------3--------|1---------------|----------------]
          [----0-----------|----0-----0-----|2---------------|----------------]
          [----------------|---------------0|3---------------|----------------]
          [----------------|3---------------|3---------------|----------------]
          [0---------------|----------------|----------------|----------------]

Pattern 3
       3.1              3.2              3.3              3.4
          [----------------|----------------|----------------|----------------]
          [----------------|----------------|----------------|----------------]
          [9---9-------X-X-|5---5-------X-X-|----------------|--------7-------]
          [9---9-------X-X-|5---5-------X-X-|7-7-7-7-----7-7-|5-------7-------]
          [7---7-------X-X-|3---3-------X-X-|7-7-7-7-----7-7-|5-------5-------]
          [----------------|----------------|5-5-5-5-----5-5-|3---------------]

Pattern 4
       4.1              4.2              4.3              4.4
          [----------------|----------------|----------------|----------------]
          [----------------|----------------|----------------|----------------]
          [----------------|7---------------|----------------|5---------------]
          [7---------------|7---------------|5---------------|5---------------]
          [7---------------|5---------------|5---------------|3---------------]
          [5---------------|----------------|3---------------|----------------]

============================================================================
Song & Play Pattern

____________________________________________________________________________
---------------------------------FIRST COUPLET------------------------------

 1.1---------------------------------1.2---------------------------------\

 1.3---------------------------------1.4---------------------------------\

 1.1---------------------------------1.2---------------------------------\

 1.3---------------------------------1.4---------------------------------\
                                                     I              am

 1.1---------------------------------1.2---------------------------------\
  sorry                   for the   times    that    I    made     you
 1.3---------------------------------1.4---------------------------------\
  screan                  for the   times    that    I    killed   your
 1.1---------------------------------1.2---------------------------------\
  dreams                  for the   times    that    I    made     your
 1.3---------------------------------1.4---------------------------------\
  whole          world             rumble

 1.1---------------------------------1.2---------------------------------\
                          for the   times    that    I    made     you
 1.3---------------------------------1.4---------------------------------\
  cry                     for the   times    that    I    told     you
 2.1---------------------------------2.2---------------------------------\
  lies                    for the   times    that    I    wathed   and
 2.3---------------------------------2.4---------------------------------\
  let            you                stumble

 X.X---------------------------------X.X---------------------------------\
                                                                 It's to

____________________________________________________________________________
-----------------------------------CHORUS-----------------------------------

 3.1---------------------------------3.2---------------------------------\
  bad [but hey]                                               but that's
 3.3---------------------------------3.4---------------------------------\
  me                                                        What goes a-
 3.1---------------------------------3.2---------------------------------\
  round                      comes  around                        you'll
 3.3---------------------------------3.4---------------------------------\
  see                                                         That I can

 4.1---------------------------------4.2---------------------------------\
  carry                                                              the
 4.3---------------------------------4.4---------------------------------\
  burden         of                  pain             Cause it ain't the
 4.1---------------------------------4.2---------------------------------\
  first time [now] [oh no]                                        that a
 4.3---------------------------------4.4---------------------------------\
  man           goes               insane                  When I spread

 4.1---------------------------------4.2---------------------------------\
  my            wings                                      to        em-
 4.3---------------------------------4.4---------------------------------\
  brace     hime        for          life                Sucking out his
 4.1---------------------------------4.2---------------------------------\
  love  ah,   I'll                   never be
 4.3---------------------------------4.4---------------------------------\
  nobody's                           wife

____________________________________________________________________________
--------------------------------SECOND COUPLET------------------------------

 1.1---------------------------------1.2---------------------------------\

 1.3---------------------------------1.4---------------------------------\

 1.1---------------------------------1.2---------------------------------\

 1.3---------------------------------1.4---------------------------------\
                                                     I               am

 1.1---------------------------------1.2---------------------------------\
  sorry                   for the   times    that    I    didn't   come
 1.3---------------------------------1.4---------------------------------\
  home                    left you  lying       in     that     bed  a-
 1.1---------------------------------1.2---------------------------------\
  lone                      flying   high    in    the   sky  when  you
 1.3---------------------------------1.4---------------------------------\
  needed           my           shoulder

 1.1---------------------------------1.2---------------------------------\
                         You're like stone   hanging      round      my
 1.3---------------------------------1.4---------------------------------\
  neck, see                  Cut it loose   before       it breaks   my
 1.1---------------------------------1.2---------------------------------\
  back, see               I've gotta say    what   I     feel    before
 1.3---------------------------------1.4---------------------------------\
  I               grow             older

 1.1---------------------------------1.2---------------------------------\
  Sorry                       but I  ain't   gonna       change      my
 1.3---------------------------------1.4---------------------------------\
  ways                 You know I've tried   but    I'm     still   the
 2.1---------------------------------2.2---------------------------------\
  same                          I've got     to          do          it
 2.3---------------------------------2.4---------------------------------\
  my                                 way

 X.X---------------------------------X.X---------------------------------\
                                                                It's to

---------------------------------------------------------------------------

CHORUS

SOLO            (Pattern 3 four times)

CHORUS  (In the last pattern is a break, play along to get the feel)

END             (Pattern 3 four times) (Fade to End)

---------------------------------------------------------------------------

I hope you'll enjoy playing this beautiful song.

Remember that this just reflects the way I hear the song so anyone with
improvements on this tabbed song can rewrite the file or e-mail the
improvements to me.

---------------------------------------------------------------------------

Legend
------

 h  = hammer-on
 p  = pull-off
 b  = bend
 r  = bend release
 /  = slide up/down
<5> = natural harmonic
[5] = artifical harmonic
 ~  = vibrato
 tr = trill

            
            
Suggest correction
Creating personal tab
Creating personal tab
You can edit any tab online and save it as your Personal.

You can edit, replace or remove any tab part or add personal notes – all changes will be seen only by you.

Personal tabs can be accessed anytime from any device, even offline.
Learn more »
comments
print report bad tab
3 comments total.
0 reply
ArctcMnkysRcks! 10 May 28, 2007 05:57 AM

almost perfect.
but i think the chord 0-2-2 in the chorus must be x-7-9-9
(x is not played)
if you listen you will hear. the rest is perfect!!

0 reply
Tymen 10 May 30, 2007 04:23 AM

great tab!

0 reply
Avrill 1,052 Dec 22, 2008 08:08 AM

geweldig :)

guest
Wanna post a correction for this tab? Suggest correction