Oops, an error
Loading. Please wait.

It Takes More Than Metal To Move A Bull bass

93 views 1 this week
no commentswrite comment
1 2 3 4 5
3 more votes to show rating
add to favorites
×
Save as Personal and add changes to this tab that will be seen only by you. Learn more ›
×
You can save this tab as Personal to edit and correct it or add notes. All changes will be seen only by you. Learn more »
launch autoscroll
font size
0
reset
guitar tuner
edit
Autoscroll
slow
fast
+/-
esc
set tempo
stop
Author
Anterrabae
www.myspace.com/anterrabae
And Our Heart Beat in Our Fingertips, Without Reason
It Takes More Than Metal To Move A Bull

*Note* This song has too many parts, and too many changes. Sorry for the difficulty of this tab.

Tuning: Drop C (C G C F)

Intro: Pattern: A, B, A, B, A, B, C, B, D
            A                   B                  C
F |-------------------|------------------|-------------------|
C |-------------------|------------------|-------------------|
G |---5----------5----|---5--------------|---5----------5----|
C |-0---05-6-03-0--05-|-0---05-6-0333333-|-----05-6-03-0--05-|

                    D
F |-----------------------------------|
C |-----------------------------------|
G |-5555555/15-15-15-15-15-15---------|
C |---------------------------6-5-3-0-|

Verse (kinda): the timing is very difficult here. Lots of rests.

F |----------------------|  |--------------------|
C |----------------------|x1|--------------------|x1
G |----------------------|  |--------------------|
C |--------6-5-0-3-5-3-0-|  |--------5-6-5-3-5-0-|

F |----------------------|  |------------------------|
C |----------------------|x1|------------------------|x1
G |----------------------|  |------------------------|
C |--------6-5-0-3-5-3-0-|  |-5-6-5-3-5--5-6-5-3-5-0-|

Verse part II:

F |---------|-----------------------|
C |---------|-----------------------|x4
G |---------|---5-----------5-------|
C |-6-5-0-3-|-0---0-5-0-3-0---0-5-0-|

Verse part III: Pattern: A, B, A, C, A, B, A
   pick up            A                             B
F |-------|-------------------------|---------------------------|
C |-------|-------------------------|---------------------------|
G |-------|-------------------------|-----------5-----------5---|
C |-6-5-3-|-0-3-5-6-5-3-0-3-5-6-5-3-|-0-0-0-0-0---0-5-0-6-0---5-|

                C
F |---------------------------|
C |---------------------------|
G |-----------5-----------5-3-|
C |-0-0-0-0-0---0-5-0-6-0-----|

End of Verse III:

F |---------------------|---------------------|
C |---------------------|---------------------|x2
G |-----------5-----5---|-----------5-----3-3-|
C |-0-0-0-0-0---5-6---5-|-0-0-0-0-0---5-6-----|

F |----------------------|
C |----------------------|
G |----------------------|
C |-5-6-5-3-5--5-6-5-3-5-|

Breakdown: (w/ overdrive)
                                       x4    (last time)
F |----------------------------------------| |---------|
C |----------------------------------------|.|---------|
G |--------------------------------2---3---|.|-2---3---|
C |-0---00---000-0-0-0-0-0---000-3---1---2-| |---1---2-|

Interlude? (I am running out of part names) (overdrive off)

F |---------------------------------------------------------------------|
C |---------------------------------------------------------------------|
G |-5-5-5-5-5-5-5-5-5-5-5-5-5-5-5-55555-5-5-5-5-5-5-5-5-5-5-5-5-5-5-5-5-|
C |-0-----------------------------------------------------------------0-|

Intro to Bridge: Same as Intro. Pattern: A, B, A, B with extra ending of part B at end.

-then-

Bridge: (w/ overdrive)

F |-----------------------------------|---------------------|
C |-----------------------------------|---------------------|x2
G |-----7\5---3/6---3\5---------------|-----7\5---3/6---3\5-|
C |-0-3-----0-----0-----0-6-5-0-3-5-3-|-0-3-----0-----0-----|

F |------------------------|
C |------------------------|
G |------------------------|
C |-5-6-5-3-5--5-6-5-3-5-0-|

Ending: (slowed down) (w/ overdrive)

F |-------------------------------|  |---------------------|
C |-------------------------------|x4|---------------------|x4
G |-----------5-----------5-------|  |-------b--5-5-5--555-|
C |-6-5-0-3-0---0-5-0-3-0---0-5-0-|  |-6-5-0-3--0-0-0--000-|

F |----------------------------------------------------|
C |----------------------------------------------------|
G |-----------5-----------5--------------------------5-|
C |-6-5-0-3-0---0-5-0-3-0---0-5-0-6-5-0-3-5-0--------0-|

Nice Tusks fools.

            
            
Suggest correction
Creating personal tab
Creating personal tab
You can edit any tab online and save it as your Personal.

You can edit, replace or remove any tab part or add personal notes – all changes will be seen only by you.

Personal tabs can be accessed anytime from any device, even offline.
Learn more »
Give kudos to tab author, rate the tab!
1 2 3 4 5
comments
print report bad tab
guest
You may want to rate the tab now too:
select rating
Wanna post a correction for this tab? Suggest correction