Oops, an error
Loading. Please wait.

My Wrists Are Rivers My Fingers Are Words bass

105 views 1 this week
no commentswrite comment
1 2 3 4 5
3 more votes to show rating
add to favorites
×
Save as Personal and add changes to this tab that will be seen only by you. Learn more ›
×
You can save this tab as Personal to edit and correct it or add notes. All changes will be seen only by you. Learn more »
launch autoscroll
font size
0
reset
guitar tuner
edit
Autoscroll
slow
fast
+/-
esc
set tempo
stop
Author
Anterrabae
And Our Heart Beat In Our Fingertips, Without Reason
My Wrists Are Rivers, My Fingers Are Words

Tuning: Drop C (C G C F)

***Another Note***
This song also is littered with effects. It also features some very unorthidox playing.
These things happen when you work with a producer that really understands you as a player
and what you are looking for without knowing it.
I blame this all on the mad scientist Mr. Justin Beck, and now you have to deal with
the repicussions as well. Enjoy!

Effects needed for whole song: OOber Heavy Overdrive, and a good Noise Gate to keep it 
during
                               rests.

Intro 1: (for all the 70's prog fans)
The timing is a bit weird, listen carefully to get a real grasp

F |-----------------------|  |-------------------------(5)-|
C |-----------------------|x7|-------------------------(5)-|
G |-4h66666-4h66666-4h666-|  |-4h666666-4h666666-55-55-(5)-|
C |-----------------------|  |-------------------00-00-(5)-|

Intro 2:

F |--------------|  |-----------|
C |--------------|x7|-2222/6666-|
G |-b----b-----1-|  |-2222/6666-|
C |-1-00-1-0-0---|  |-2222/6666-|

Intro 3:

F |--------------------------7>7>7>-|
C |--------------------------7>7>7>-|x4
G |--------------------------5>5>5>-|
C |-00-00--00-00--00--00-00--0>0>0>-|

Intro To Verse 1:

F |-7>-------------7>--(7)(7)(7)(7)(7)(7)(7)(7)-|
C |-5>-------------5>--(5)(5)(5)(5)(5)(5)(5)(5)-|
G |-5>-------------5>--(5)(5)(5)(5)(5)(5)(5)(5)-|
C |-0>-------00-00-0>--(0)(0)(0)(0)(0)(0)(0)(0)-|

F |-7>-------------7>--(7)(7)(7)(7)(7)(7)(7)--------|
C |-5>-------------5>--(5)(5)(5)(5)(5)(5)(5)--------|
G |-5>-------------5>--(5)(5)(5)(5)(5)(5)(5)--------|
C |-0>-------00-00-0>--(0)(0)(0)(0)(0)(0)(0)-0/12\0-|

Verse 1:

F |------------------------|  |------------------------|
C |------------------------|x3|------------------------|
G |------------------------|  |------------------------|
C |-00000----00000---------|  |-00000----00000--0/12\0-|

Verse 1, part 2:

F |------------------------------|
C |-------7--------------3-2-----|x4
G |--------8-------3-5-------3-5-|
C |-00000----00000-----0---------|

Pre-Chorus:

F |----------------------------------------------------------|
C |----------------------------------------------------------|
G |-55555555555-333333333333-1111111111111-000000-3333333333-|
C |----------------------------------------------------------|

Chorus: pattern: A B A C D D D D

                     A                                  B
F |------------------------------------|----------------------------------|
C |----b-------------------------------|----b-----------------------------|
G |----5----------1-------4-6666666666-|----5----------1-----b----b-----1-|
C |-0>---1-00-1-0---5-5-0--------------|-0>---1-00-1-0---5-5-1-00-1-0-0---|

              C                D
F |---------------------|-------------|
C |----b----------------|-------------|
G |----5----------1-----|-b----b----1-|
C |-0>---1-00-1-0---5-5-|-1-00-1-00---|

Verse 2:

F |------------------------|  |------------------------------|------------------------|
C |------------------------|x2|-------7--------------3-2-----|------------------------|
G |------------------------|  |--------8-------3-5-------3-5-|------------------------|
C |-00000----00000---------|  |-00000----00000-----0---------|-00000----00000---------|

Pre Chorus 2:
Same as Pre-Chorus 1.

Chorus 2: pattern: A B A C D D E

                     A                                    B
F |------------------------------------|----------------------------------|
C |----b-------------------------------|----b-----------------------------|
G |----5----------1-------4-6666666666-|----5----------1-----b----b-----1-|
C |-0>---1-00-1-0---5-5-0--------------|-0>---1-00-1-0---5-5-1-00-1-0-0---|

              C                  D                 E
F |-----------------------|-------------|---------------------|
C |-----------------------|-------------|---------------------|
G |----b------------1-----|-b----b----1-|-1-11-1-11-1-11-1-11-|
C |-0>-1-0-1-00-1-0---5-5-|-1-00-1-00---|-0-00-0-00-0-00-0-00-|

Chorus Outro:

F |-------------------------------------------------|
C |-------------------------------------------------|
G |------1---------1---------1---------1--------1---|
C |-5-00---00-5-00---00-5-00---00-5-00---00-5-0---0-|

Bridge: Pattern: A B C B C B C B C

            A                              B
F |-think of the > as-|-----------------------------------------|
C |-more twelth fret--|-----------------------------------------|
G |-------------------|-----------888888888888------------------|
C |-12>>>>>>>>>>>>>>>-|-121212-10--------------8888888888888888-|

                               C
F |---------------------------------------------------------|
C |---------------------------------------------------------|
G |-----------8888888888888-----------------1010101010------|
C |-121212-10---------------0-3-5-888888888------------1010-|

Chorus: Same as the First Chorus, followed by:

Ending:

F |---------|
C |---------|
G |---------|
C |-5555555-|

And it's over!

            
            
Suggest correction
Creating personal tab
Creating personal tab
You can edit any tab online and save it as your Personal.

You can edit, replace or remove any tab part or add personal notes – all changes will be seen only by you.

Personal tabs can be accessed anytime from any device, even offline.
Learn more »
Give kudos to tab author, rate the tab!
1 2 3 4 5
comments
print report bad tab
guest
You may want to rate the tab now too:
select rating
Wanna post a correction for this tab? Suggest correction