Oops, an error
Loading. Please wait.

Stay Moist bass

75 views 1 this week
no commentswrite comment
1 2 3 4 5
3 more votes to show rating
add to favorites
×
Save as Personal and add changes to this tab that will be seen only by you. Learn more ›
×
You can save this tab as Personal to edit and correct it or add notes. All changes will be seen only by you. Learn more »
launch autoscroll
font size
0
reset
guitar tuner
edit
Autoscroll
slow
fast
+/-
esc
set tempo
stop
Author
Anterrabae
And Our Heart Beat in Our Fingertips, Without Reason
Stay Moist

Tuning: Drop C (C G C F)

Intro: (w/overdrive)
                            A
F |--------------------------------------------------|
C |--------------------------------------------------|
G |---5555555555555/13-13-13-13-13-13-13-13\66666666-|
C |-00-----------------------------------------------|

                   B
F |----------------------------------|
C |----------------------------------|
G |---55555555555555--------66666666-|
C |-00--------------88888888---------|

                             C
F |---------------------------------------------------------|
C |---------------------------------------------------------|
G |---55555555555555---/66666666---/13-13-13-13-13-13-13-13-|
C |-00--------------12\---------12\-------------------------|

Pattern: A, B, A, C

Intro to Verse: (overdrive off)

F |------|-77777-|-7-----------|
C |------|-77777-|-7-----------|
G |------|-55555-|-5--------55-|
C |-0----|-00000-|-0--------00-|

Verse:

A (3 measures of 4/4, 1 measure of 2/4)

F |---------------------|------|
C |---------------------|------|
G |---------------------|------|
C |-00000--00000--00000-|-5010-|

B (normal 4/4)

F |-------------------|  |-------|
C |-------------------|x4|-------|
G |------------(3)----|  |-------|
C |-3-1-4-0000-000-00-|  |-00000-|

Intro: Same pattern as above (w/overdrive)

Intro to Breakdown:

F |---|-7-|
C |---|-7-|
G |---|-5-|
C |-0-|-0-|

Breakdown: whole thing twice (total, 8 bars)

F |---------------------|  |---------------|
C |---------------------|x3|---------------|x1
G |---------------------|  |------------10-|
C |-00-00-0000--0000000-|  |-00-00-0000-0--|

Bridge: (A B A C A B A D)
           A               B                 C                       D
F |---------------|-----------------|-----------------|-----------------------------|
C |---------------|-------7-5-------|-----------------|-----------------------------|
G |-8-7-5-3/5-7p5-|-8-7-5-----7-8-7-|-8-7-5-----7-8-7-|-8-7-5-----7-777777-8-888888-|
C |---------------|-----------------|-------7-5-------|-------7-5-------------------|

Bridge 2:

F |-----------------------|  |-------------------------------12--------------------------------|
C |-----------------------|x8|---------------------------------12---------------------55555555-|
G |-5-----5-----1111-3333-|  |------/8---\3/5-----5-12--12\10----10\3--3/5--5\3333333333333333-|
C |---000---000-----------|  |-0-------------0----0--------------------------------------------|

Ending: (w/overdrive) (like verse, 3 measures of 4/4, 1 of 2/4)(twice)

F |-----------------------------------------------|
C |---------b-------------b--------------b--------|x2
G |-------3-3p0----------3-3p0----------3-3p0-----|
C |-00000------3-0-00000------3-0-00000------5010-|

      The timing is a bit funny, but you can figure it out.
F |-----------------------------------------------------------------|
C |-----------------------------------------------------------------|
G |-----------------------------------------------------------------|
C |-00000---00000---00000--00000-00000---00000---00000--00000-00000-|

And there you have it. Rock on!

            
            
Suggest correction
Creating personal tab
Creating personal tab
You can edit any tab online and save it as your Personal.

You can edit, replace or remove any tab part or add personal notes – all changes will be seen only by you.

Personal tabs can be accessed anytime from any device, even offline.
Learn more »
Give kudos to tab author, rate the tab!
1 2 3 4 5
comments
print report bad tab
guest
You may want to rate the tab now too:
select rating
Wanna post a correction for this tab? Suggest correction