Oops, an error
Loading. Please wait.

Among The Living bass

version 1
version 1

Whole song

Interactive

by Anthrax
7,312 views 33 this week
no commentswrite comment
1 2 3 4 5
x 4
add to favorites
×
Save as Personal and add changes to this tab that will be seen only by you. Learn more ›
×
You can save this tab as Personal to edit and correct it or add notes. All changes will be seen only by you. Learn more »
launch autoscroll
font size
0
reset
guitar tuner
backing track
0:00
0:00
edit
Autoscroll
slow
fast
+/-
esc
set tempo
stop
Author
Difficulty
-------------------------------------------------------------------------------
			     Among the Living - Anthrax
-------------------------------------------------------------------------------

Tabbed By: (...)
e-mail: ajmclaughlin5@aim.com

Tuning: Standard

INTRO
G|-----------------------|
D|-----------------------| X4
A|----2-1-2-------2-1----|
E|-0------------0-----0--|


RIFF A
G|--------------------------------------------------------------|
D|--------------------------------------------------------------| X4
A|----2-1-2-----------------------2-1-2--1-1-1-1-1-1-1-1--------|
E|-0---------1-1-1-1-1-1-1-1-1--0-------------------------------|


RIFF B
G|--------------------------------------------------------------------------------------|
D|--------------------------------------------------------------------------------------|
A|---------------------------5---6-------------------------------------------5---6------|
E|-7-5-6-4-5-0--0-0-0-0-0--5---6---5-0--0-0-0-0-0--7-5-6-4-5-0--0-0-0-0-0--5---6----5-0-|


LEADS INTO RIFF C
G|--------------------------|
D|--------------------------|
A|--------------------------|
E|-5-0----5-0----5-0----5-0-|


RIFF C
G|-----------------------------------------------------------------------------------|
D|-----------------------------------------------------------------------------------|
A|-----------------------------------------------------------------------------------|
E|-000-3-4-5-000-4-5-6-000-3-4-5-000-4-5-6-000-3-4-5-000-4-5-6-000-3-4-5-000-4-5-6-7-|


VERSE RIFF
G|------------------------------------|
D|------------------------------------|
A|------------------------------------|
E|-5-3-5-6--5-3-5-6--5-3-5-6--5-3-5-6-|


Pre Chorus: Play RIFF C

Verse 2: Play VERSE RIFF

Pre Chorus: Play RIFF C


CHORUS RIFF
G|-------------------------------------------------------------------------------------------------------------------------------|
D|-------------------------------------------------------------------------------------------------------------------------------|
A|----2-1-2-------------------------2-1-2--1-1-1-1-1-1-1-1--------2-1-2----------------------2-1-2--1-1-1-1-1-1-1-1--------------|
E|-0---------1-1-1-1-1-1-1-1--0-------------------------------0---------1-1-1-1-1-1-1-1--0---------------------------7-5-6-4-5-0-|


Verse 3: Play VERSE RIFF

Pre Chorus: Play RIFF C

Chorus: Play Chorus Riff


LEAD INTO SOLO SECTION
G|-------------|
D|-------------|
A|-------------|
E|-7-5-6-4-5-0-|


SOLO RHYTHM  A
G|------------------------|
D|------------------------| X4
A|------------------------|
E|-2-2-1-1--1--2-2-0-0--0-|


SOLO RHYTHM B
G|------------------------|
D|------------------------| X2
A|------------------------|
E|-5-5-4-4--4--5-5-3-3--3-|


SOLO RHYTHM C
G|------------------|
D|------------------|
A|----2-1-2-1-2-1-2-| X4
E|-0----------------|


Verse 4: Play VERSE RIFF

Pre Chorus: Play RIFF C

Chorus: Play Chorus Riff

“Among” Chants: Play SOLO RHYTHM C

ENDING
G|-------------9-9-9----|
D|-------9-9------------|
A|-7-7----------------7-|
E|----------------------|

HAPPY MOSHING!

            
            
Suggest correction
Creating personal tab
Creating personal tab
You can edit any tab online and save it as your Personal.

You can edit, replace or remove any tab part or add personal notes – all changes will be seen only by you.

Personal tabs can be accessed anytime from any device, even offline.
Learn more »
comments
print report bad tab
guest
You may want to rate the tab now too:
select rating
Wanna post a correction for this tab? Suggest correction