Oops, an error
Loading. Please wait.

Caught In A Mosh bass

version 2
version 2

Whole song

Interactive

by Anthrax
12,641 views 1 this week
1 commentread comment
1 2 3 4 5
x 3
add to favorites
×
Save as Personal and add changes to this tab that will be seen only by you. Learn more ›
×
You can save this tab as Personal to edit and correct it or add notes. All changes will be seen only by you. Learn more »
launch autoscroll
font size
0
reset
guitar tuner
backing track
0:00
0:00
edit
Autoscroll
slow
fast
+/-
esc
set tempo
stop
Author
Difficulty
Intro/chorus
G--------------------------------------------------------------|
D--------------------------------------------------------------|
A--------------------------------------------------------------| x4
E-0-0-1-0-0-3-0-0-4-0-5-0-6-7-8--0-0-1-0-0-3-0-0-4-0-5-0-8-7-6-|

Verse
G----------------------------------------------|
D----------------------------------------------|
A---------------------------8-7-----6-7--------|  x4
E-0--00000000000000-7-8-0-0-----0-0-----000000-|

Pre-chorus
G----------------------------|
D----------------------------|
A----------------------------| x2
E-3-3-2--0-2-0-2-0-2-0-2-0-2-|

G----------------------------------------------------|
D----------------------------------------------------|
A-5-5--5-5-5-5--5-5-5-5-5-5-5--8-8-8\3--8-7-5--------|
E--------------------------------------------8-7-5-3-|(then play mainriff x1)

G-------------------------------------------13---17--17---|
D----------------------------------------12---13---17--17-|
A-5-5--5-5-5-5--5-5-5-5-5-5-5--8-8--8-8-------------------|
E---------------------------------------------------------|

Chorus x2
Verse x3
Prechorus
Chorus

Bridge
G-------------------------------------------------------9-|
D----------------------------------------------5-----7----|
A-------------7/3-3-3-3-3-3-3-3--------------------5------|x2
E-0-0-0-0-0-0-------------------2--2-2-2-2-2-2---3--------|

G------------------7-99999-7-99999-7-999999-|
D-------------------------------------------|
A-------------------------------------------|
E-0-00000000000000--------------------------|

G-----------------------------|
D-----------------------------|
A-----------------------------| x8
E-2--0-2-0-2-0-2-0-2-0-2--3-3-|

G---------------------------------------------------------------|
D---------------------------------------------------------------|
A------------------------------------------------------------2~-|  X2
E-0-0-1-0-0-2-0-0-3-2-0-2-0-0-3~-0-0-1-0-0-2-0-0-3-2-0-2-0-0----|

G--------------------------------------|
D-------------------------------5--7-9-|
A---------3~--3-3----------------------|
E-0~--0-0---------2~--2-2-3~--3--------|

G-------------------19-----------------19----------------------------|
D-------------17-19---19---------17-19---19-------------------5--7-9-|
A----------17------------17---17------------17-----------------------|
E-0~--0-0---------------------------------------2~--2-2-3~--3--------|

G---------------------------------------------------------------------------|
D------------------------------------------------------------------10-97----|
A-----------------------------------------------------------------------97--|
E-0--3-0--3-0-0-1-0-0-3-0-0-4-0-5-0-6-7-8--0-0-1-0-0-3-0-0-4-0-5-0----------|

Chorus/main riff x2
verse x4
pre-chorus x1
main riff x2

Ending
G----------------------|
D----------------------|
A----------------7777--|
E-3--0----6-7-8~-----8-|

            
            
Suggest correction
Creating personal tab
Creating personal tab
You can edit any tab online and save it as your Personal.

You can edit, replace or remove any tab part or add personal notes – all changes will be seen only by you.

Personal tabs can be accessed anytime from any device, even offline.
Learn more »
Give kudos to tab author, rate the tab!
1 2 3 4 5
comments
print report bad tab
1 comment total.
0 reply
cochi4 61 Jul 16, 2008 08:22 PM

G-------------------19-----------------19----------------------------|
D-------------17-19---19---------17-19---19-------------------5--7-9-|
A----------17------------17---17------------17-----------------------|
E-0~--0-0---------------------------------------2~--2-2-3~--3--------|

is that a bass solo or something? please respond

guest
You may want to rate the tab now too:
select rating
Wanna post a correction for this tab? Suggest correction