Oops, an error
Loading. Please wait.

Hy Pro Glo tab

version 2
version 2

Whole song

Interactive

by Anthrax
825 views 1 this week
no commentswrite comment
1 2 3 4 5
2 more votes to show rating
add to favorites
×
Save as Personal and add changes to this tab that will be seen only by you. Learn more ›
×
You can save this tab as Personal to edit and correct it or add notes. All changes will be seen only by you. Learn more »
launch autoscroll
font size
0
reset
how to read this tab
guitar tuner
edit
Autoscroll
slow
fast
+/-
esc
set tempo
stop
#----------------------------------PLEASE NOTE---------------------------------#
#This file is the author's own work and represents their interpretation of the #
#song. You may only use this file for private study, scholarship, or research. #
#------------------------------------------------------------------------------#

HY PRO GLO
As recorded by Anthrax
(From the 1993 Album SOUND OF WHITE NOISE)

Transcribed by Mike Sheehan
	

Words and Music by Charlie Benante, Scott Ian & John Bush

E5
0 2 x x x x
	
A5
x 0 2 2 x x
	
F5
1 3 x x x x
	
F#5
2 4 x x x x

G5
3 5 x x x x
	
Bb5
x 1 3 3 x x
	
C5
x 3 5 x x x
	
C#5
x 4 6 x x x

D5
x 5 7 x x x
	
Eb5
x 6 8 x x x
	
E5VII
0 7 9 x x x
	
F
1 0 x x x x

F#
2 1 x x x x
	
Gm
3 1 x x x x
	
Eb/G
3 6 x x x x

Gtr I (Eb Ab Db Gb Bb Eb) - 'Scott Ian'
Gtr II (Eb Ab Db Gb Bb Eb) - 'Dan Spitz'
Gtr III (Eb Ab Db Gb Bb Eb) - 'Lead'
Gtr IV (Eb Ab Db Gb Bb Eb) - 'Overdubs'

 Intro
  Q=122
  N.C.
 4/4
  Gtrs I, II
  |3| |3| |-3-| |-3-|   |3| |3| |-3-| |-3-|
  Q E Q E E E E E E E   Q E Q E E E E E E E
|---------------------|---------------------|
|---------------------|---------------------|
|---------------------|---------------------|
|---------------------|---------------------|
|---------------------|---------------------|
|-3---3---3-1-3---3-1-|-3---3---3-1-3---3-1-|


                                    Bb5
                                PM|
  |3| |3| |-3-| |-3-|   |3| |3| |-3-|
  Q E Q E E E E E E E   Q E Q E E E E +Q
|---------------------|--------------------|
|---------------------|--------------------|
|---------------------|-------------3-(3)--|
|---------------------|-------------3-(3)--|
|---------------------|-------------1-(1)--|
|-3---3---3-1-3---3-1-|-3---3---3-1--------|


  N.C.
  |3| |3| |-3-| |-3-|   |3| |3| |-3-| |-3-|
  Q E Q E E E E E E E   Q E Q E E E E E E E
|---------------------|---------------------|
|---------------------|---------------------|
|---------------------|---------------------|
|---------------------|---------------------|
|---------------------|---------------------|
|-3---3---3-1-3---3-1-|-3---3---3-1-3---3-1-|


                                    Bb5
                                PM|
  |3| |3| |-3-| |-3-|   |3| |3| |-3-|
  Q E Q E E E E E E E   Q E Q E E E E +Q
|---------------------|----------------------||
|---------------------|----------------------||
|---------------------|-------------3-(3)----||
|---------------------|-------------3-(3)----||
|---------------------|-------------1-(1)----||
|-3---3---3-1-3---3-1-|-3---3---3-1----------||


 Verse
  N.C.
  |3| |3| |-3-| |-3-|   |3| |3| |-3-| |-3-|
  Q E Q E E E E E E E   Q E Q E E E E E E E
|---------------------|---------------------|
|---------------------|---------------------|
|---------------------|---------------------|
|---------------------|---------------------|
|---------------------|---------------------|
|-3---3---3-1-3---3-1-|-3---3---3-1-3---3-1-|


                                    Bb5
                                PM|
  |3| |3| |-3-| |-3-|   |3| |3| |-3-|
  Q E Q E E E E E E E   Q E Q E E E E +Q
|---------------------|----------------------|
|---------------------|----------------------|
|---------------------|-------------3-(3)----|
|---------------------|-------------3-(3)----|
|---------------------|-------------1-(1)----|
|-3---3---3-1-3---3-1-|-3---3---3-1----------|


  N.C.
  |3| |3| |-3-| |-3-|   |3| |3| |-3-| |-3-|
  Q E Q E E E E E E E   Q E Q E E E E E E E
|---------------------|---------------------|
|---------------------|---------------------|
|---------------------|---------------------|
|---------------------|---------------------|
|---------------------|---------------------|
|-3---3---3-1-3---3-1-|-3---3---3-1-3---3-1-|


                                    Bb5
                                PM|
  |3| |3| |-3-| |-3-|   |3| |3| |-3-|
  Q E Q E E E E E E E   Q E Q E E E E +Q
|---------------------|----------------------||
|---------------------|----------------------||
|---------------------|-------------3-(3)----||
|---------------------|-------------3-(3)----||
|---------------------|-------------1-(1)----||
|-3---3---3-1-3---3-1-|-3---3---3-1----------||


    Q=130
    N.C.
      PM----|               PM----|
    |3| |-3-| |3| |-3-|   |3| |-3-| |3| |-3-|
    Q E E E E Q E E E E   Q E E E E Q E E E E
||----------------------|---------------------|
||o---------------------|---------------------|
||----------------------|---------------------|
||----------------------|---------------------|
||o-----------1---------|-----------1---------|
||--3-3-3-3-3---3---3-1-|-3-3-3-3-3---3---3-1-|


                                      Bb5
    PM----|               PM----|
  |3| |-3-| |3| |-3-|   |3| |-3-| |-3-|
  Q E E E E Q E E E E   Q E E E E E E E +Q
|---------------------|----------------------|
|---------------------|----------------------|
|---------------------|---------------3-(3)--|
|---------------------|---------------3-(3)--|
|-----------1---------|---------------1-(1)--|
|-3-3-3-3-3---3---3-1-|-3-3-3-3-3-3-1--------|


  N.C.
    PM----|               PM----|
  |3| |-3-| |3| |-3-|   |3| |-3-| |3| |-3-|
  Q E E E E Q E E E E   Q E E E E Q E E E E
|---------------------|---------------------|
|---------------------|---------------------|
|---------------------|---------------------|
|---------------------|---------------------|
|-----------1---------|-----------1---------|
|-3-3-3-3-3---3---3-1-|-3-3-3-3-3---3---3-1-|


    PM----|             PM------------------|
  |3| |-3-| |3| |-3-|   |3| |-3-| |-3-| |-3-|
  Q E E E E Q E E E E   Q E E E E E E E E E E
|---------------------|-----------------------|
|---------------------|-----------------------|
|---------------------|-----------------------|
|---------------------|-----------------------|
|-----------1---------|-----------------------|
|-3-3-3-3-3---3---3-1-|-3-3-3-3-3-3-1-1-1-1-1-|


  PM--------|               PM------|
  |-3-| |-3-| |3| |-3-|   |-3-| |-3-| |3| |-3-|
  E E E E E E Q E E E E   E E E E E E Q E E E E
|-----------------------|-----------------------|
|-----------------------|-----------------------|
|-------------3-5---5S4-|-------------3-5---5S4-|
|-------------3-5---5S4-|-------------3-5---5S4-|
|-3-3-3-3-3-3-----------|-3-3-3-3-3-3-----------|
|-----------------------|-----------------------|


                          C5
    PM------|
  |-3-| |-3-| |3| |-3-|   |-3-| |-3-| |-3-| |-3-|
  E E E E E E Q E E E E   E E E E E E E E E E E E
|-----------------------|---------------------------|
|-----------------------|---------------------------|
|-------------3-5---5S4-|---------------------------|
|-------------3-5---5S4-|-5-5-5-5-5-5-5-5-5-5-5-5---|
|-3-3-3-3-3-3-----------|-3-3-3-3-3-3-3-3-3-3-3-3---|
|-----------------------|---------------------------|


  N.C.
  |3| |3| |-3-| |-3-|   |3| |3| |-3-| |-3-|
  Q E Q E E E E E E E   Q E Q E E E E E E E
|---------------------|---------------------|
|---------------------|---------------------|
|---------------------|---------------------|
|---------------------|---------------------|
|---------------------|---------------------|
|-3---3---3-1-3---3-1-|-3---3---3-1-3---3-1-|


                        PM------------------|
  |3| |3| |-3-| |-3-|   |3| |-3-| |-3-| |-3-|
  Q E Q E E E E E E E   Q E E E E E E E E E E
|---------------------|-----------------------|
|---------------------|-----------------------|
|---------------------|-----------------------|
|---------------------|-----------------------|
|---------------------|-----------------------|
|-3---3---3-1-3---3-1-|-3-3-3-3-3-3-1-1-1-1-1-|


  PM--------|             PM--------|
  |-3-| |-3-| |3| |-3-|   |-3-| |-3-| |3| |-3-|
  E E E E E E Q E E E E   E E E E E E Q E E E E
|-----------------------|-----------------------|
|-----------------------|-----------------------|
|-------------3-5---5S4-|-------------3-5---5S4-|
|-------------3-5---5S4-|-------------3-5---5S4-|
|-3-3-3-3-3-3-----------|-3-3-3-3-3-3-----------|
|-----------------------|-----------------------|


    PM------|
  |-3-| |-3-| |3| |-3-|   |-3-| |-3-| |-3-| |-3-|
  E E E E E E Q E E E E   E E E E E E E E E E E E
|-----------------------|---------------------------|
|-----------------------|---------------------------|
|-3-----------2-3---3-3-|-3-2-2-2-2-2-2-1-1-1-1-1---|
|-3-----------2-3---3-3-|-3-2-2-2-2-2-2-1-1-1-1-1---|
|---1-1-1-1-1-----------|---------------------------|
|-----------------------|---------------------------|


  |3| |3| |-3-| |-3-|   |3| |3| |-3-| |-3-|
  Q E Q E E E E E E E   Q E Q E E E E E E E
|---------------------|---------------------|
|---------------------|---------------------|
|---------------------|---------------------|
|---------------------|---------------------|
|---------------------|---------------------|
|-3---3---3-1-3---3-1-|-3---3---3-1-3---3-1-|


                                    Bb5
                                PM|
  |3| |3| |-3-| |-3-|   |3| |3| |-3-|
  Q E Q E E E E E E E   Q E Q E E E E +Q
|---------------------|----------------------|
|---------------------|----------------------|
|---------------------|-------------3-(3)----|
|---------------------|-------------3-(3)----|
|---------------------|-------------1-(1)----|
|-3---3---3-1-3---3-1-|-3---3---3-1----------|


  N.C.
  |3| |3| |-3-| |-3-|   |3| |3| |-3-| |-3-|
  Q E Q E E E E E E E   Q E Q E E E E E E E
|---------------------|---------------------|
|---------------------|---------------------|
|---------------------|---------------------|
|---------------------|---------------------|
|---------------------|---------------------|
|-3---3---3-1-3---3-1-|-3---3---3-1-3---3-1-|


                       1.
                                    Bb5
                                PM|
  |3| |3| |-3-| |-3-|   |3| |3| |-3-|
  Q E Q E E E E E E E   Q E Q E E E E +Q
|---------------------|-----------------------||
|---------------------|----------------------o||
|---------------------|-------------3-(3)-----||
|---------------------|-------------3-(3)-----||
|---------------------|-------------1-(1)----o||
|-3---3---3-1-3---3-1-|-3---3---3-1-----------||


                            Interlude
  2.
  N.C.
  PM---------------------------|
  |-3-| |-3-| |-3-| |-3-|    |-3-|
  E E E E E E E E E E E E    E E E +H.
|-------------------------||----------------|
|-------------------------||----------------|
|-------------------------||----------------|
|-------------------------||----------------|
|-------------------------||---0-1-(1)------|
|-3-3-3-3-3-3-1-1-1-1-1-1-||-3--------------|


         PM--------|
         |-3-| |-3-|
  +H     E E E E E E   H..       +E     W
|--------------------|----------------|------|
|--------------------|----------------|------|
|--------------------|----------------|------|
|--------------------|----------------|------|
|-(1)------0-1-------|----------------|------|
|--------3-----3-3-1-|-3---------(3)\-|------|


  PM|                     PM--------|
  |-3-|                   |-3-| |-3-|
  E E E +H.        +H     E E E E E E   H..       +E     W
|----------------|--------------------|----------------|------|
|----------------|--------------------|----------------|------|
|----------------|--------------------|----------------|------|
|----------------|--------------------|----------------|------|
|---0-1-(1)------|-(1)------0-1-------|----------------|------|
|-3--------------|--------3-----3-3-1-|-3---------(3)\-|------|


  PM|                           PM--------|
  |-3-|                         |-3-| |-3-|
  E E E +H     +E  +E    +H     E E E E E E   H..       +E     W
|----------------------|--------------------|----------------|------|
|----------------------|--------------------|----------------|------|
|----------------------|--------------------|----------------|------|
|----------------------|--------------------|----------------|------|
|---0-1-(1)----(1)-(1)-|-(1)------0-1-------|----------------|------|
|-3--------------------|--------3-----3-3-1-|-3---------(3)\-|------|


  PM|                     PM--------|
  |-3-|                   |-3-| |-3-|
  E E E +H.        +H     E E E E E E   H..       +E     W
|----------------|--------------------|----------------|------||
|----------------|--------------------|----------------|------||
|----------------|--------------------|----------------|------||
|----------------|--------------------|----------------|------||
|---0-1-(1)------|-(1)------0-1-------|----------------|------||
|-3--------------|--------3-----3-3-1-|-3---------(3)\-|------||


 Bridge
  PM-------------------------------------------------
  |-3-| |-3-| |-3-| |-3-|   |-3-| |-3-| |-3-| |-3-|
  E E E E E E E E E E E E   E E E E E E E E E E E E
|-------------------------|-------------------------|
|-------------------------|-------------------------|
|-------------------------|-------------------------|
|-------------------------|-------------------------|
|---0-1---0-1---0-1-------|---0-1---0-1---0-1-------|
|-3-----3-----3-----3-3-1-|-3-----3-----3-----3-3-1-|


 -------------------------------------------------|
  |-3-| |-3-| |-3-| |-3-|   |-3-| |-3-| |-3-| |-3-|
  E E E E E E E E E E E E   E E E E E E E E E E E E
|-------------------------|----------------------------|
|-------------------------|----------------------------|
|-------------------------|----------------------------|
|-------------------------|----------------------------|
|---0-1---0-1---0-1-------|---0-1---0-1---0-1----------|
|-3-----3-----3-----3-3-1-|-3-----3-----3-----3-3-1----|


  |-3-| |-3-| |-3-| |-3-|   |-3-| |-3-| |-3-| |-3-|
  E E E E E E E E E E E E   E E E E E E E E E E E E
|-------------------------|-------------------------|
|-------------------------|-------------------------|
|-------------------------|-------------------------|
|-------------------------|-------------------------|
|---0-1---0-1---0-1-------|---0-1---0-1---0-1-------|
|-1-----1-----1-----1-1-0-|-1-----1-----1-----1-1-0-|


  PM----------------------------------------------|
  |-3-| |-3-| |-3-| |-3-|   |-3-| |-3-| |-3-| |-3-|
  E E E E E E E E E E E E   E E E E E E E E E E E E
|-------------------------|----------------------------|
|-------------------------|----------------------------|
|-------------------------|----------------------------|
|-------------------------|----------------------------|
|---0-1---0-1---0-1-------|---0-1---0-1---0-1----------|
|-0-----0-----0-----0-1-0-|-0-----0-----0-----0-1-0----|


  PM-------------------------------------------------
  |-3-| |-3-| |-3-| |-3-|   |-3-| |-3-| |-3-| |-3-|
  E E E E E E E E E E E E   E E E E E E E E E E E E
|-------------------------|-------------------------|
|-------------------------|-------------------------|
|-------------------------|-------------------------|
|-------------------------|-------------------------|
|---0-1---0-1---0-1-------|---0-1---0-1---0-1-------|
|-3-----3-----3-----3-3-1-|-3-----3-----3-----3-3-1-|


 -------------------------------------------------|
  |-3-| |-3-| |-3-| |-3-|   |-3-| |-3-| |-3-| |-3-|
  E E E E E E E E E E E E   E E E E E E E E E E E E
|-------------------------|----------------------------|
|-------------------------|----------------------------|
|-------------------------|----------------------------|
|-------------------------|----------------------------|
|---0-1---0-1---0-1-------|---0-1---0-1---0-1----------|
|-3-----3-----3-----3-3-1-|-3-----3-----3-----3-3-1----|


  PM-------------------------------------------------
  |-3-| |-3-| |-3-| |-3-|   |-3-| |-3-| |-3-| |-3-|
  E E E E E E E E E E E E   E E E E E E E E E E E E
|-------------------------|-------------------------|
|-------------------------|-------------------------|
|-------------------------|-------------------------|
|-------------------------|-------------------------|
|---0-1---0-1---0-1-------|---0-1---0-1---0-1-------|
|-1-----1-----1-----1-1-0-|-1-----1-----1-----1-1-0-|


 -------------------------------------------------|
  |-3-| |-3-| |-3-| |-3-|   |-3-| |-3-| |-3-| |-3-|
  E E E E E E E E E E E E   E E E E E E E E E E E E
|-------------------------|----------------------------||
|-------------------------|----------------------------||
|-------------------------|----------------------------||
|-------------------------|----------------------------||
|---0-1---0-1---0-1-------|---0-1---0-1---0-1----------||
|-0-----0-----0-----0-1-0-|-0-----0-----0-----0-1-0----||


 Interlude
  |3| |3| |-3-| |-3-|   |3| |3| |-3-| |-3-|
  Q E Q E E E E E E E   Q E Q E E E E E E E
|---------------------|---------------------|
|---------------------|---------------------|
|---------------------|---------------------|
|---------------------|---------------------|
|---------------------|---------------------|
|-3---3---3-1-3---3-1-|-3---3---3-1-3---3-1-|


  |3| |3| |-3-| |-3-|   |3| |3| |-3-| |-3-|
  Q E Q E E E E E E E   Q E Q E E E E E E E
|---------------------|----------------------|
|---------------------|----------------------|
|---------------------|----------------------|
|---------------------|----------------------|
|---------------------|----------------------|
|-3---3---3-1-3---3-1-|-3---3---3-1-3---3-1--|


  Gtrs I, II
   |3|  |3|  |-3-|  |--3--|    |3|  |3|  |--3--|   |--3---|
   Q E  Q E  E E E  E   E E    Q E  Q E  E  E  E   E   E  E
|---------------------------|-------------------------------|
|---------------------------|-------------------------------|
|---------------------------|-------------------------------|
|---------------------------|-------------------------------|
|---------------------------|-------------------------------|
|--3----3----3-1-3------3-1-|--3----3----3--1--3-------3--1-|
|
| Gtr III
|  |3|  |3|  |-3-|  |--3--|    |3|  |3|  |--3--|   |--3---|
|  Q E  Q E  E E E +E   E E    Q E  Q E  E  E  E  +E   E  E
|---------------------------|-------------------------------|
|---------------------------|-------------------------------|
|---------------------------|-----------------10-(10)-------|
|----------------8-(8)------|-12---12---12-10---------12-10-|
|-10---10---10-8-------10-8-|-------------------------------|
|---------------------------|-------------------------------|
|
| Gtr IV
|  |3|  |3|  |-3-|  |--3--|    |3|  |3|  |--3--|   |--3---|
|  Q E  Q E  E E E +E   E E    Q E  Q E  E  E  E  +E   E  E
|---------------------------|-------------------------------|
|---------------------------|-------------------------------|
|---------------------------|-------------------------------|
|----------------8-(8)------|-12---12----------8--(8)-------|
|-10---10---10-8-------10-8-|-10---10---10--8---------10--8-|
|---------------------------|-------------------------------|


   |3|  |3|  |--3--|   |--3---|    |--3--|  |--3--|  |-3--|   |-3--|
   Q E  Q E  E  E  E   E   E  E    Q     E  Q     E  E E  E   E  E E
|-------------------------------|--------------------------------------||
|-------------------------------|--------------------------------------||
|-------------------------------|--------------------------------------||
|-------------------------------|--------------------------------------||
|-------------------------------|--------------------------------------||
|--3----3----3--1--3-------3--1-|--3--------3--------3-1--3------3-1---||
|
|  |3|  |3|  |--3--|   |--3---|    |--3--|  |--3--|  |-3--|
|  Q E  Q E  E  E  E  +E   E  E    E  E  E  E  E  E  Q    E  +Q
|-------------------------------|-10-13-10----13-----------------------||
|-----------------11-(11)-------|----------13----13-11-----------------||
|-12---12---12-10---------12-10-|------------------------12-(12)-------||
|-------------------------------|--------------------------------------||
|-------------------------------|--------------------------------------||
|-------------------------------|--------------------------------------||
|
|  |3|  |3|  |--3--|   |--3---|    |--3--|  |--3--|  |-3--|
|  Q E  Q E  E  E  E  +E   E  E    E  E  E  E  E  E  Q    E  +Q
|-------------------------------|--------------------------------------||
|-------------------------------|--------------------------------------||
|-------------------------------|----10-------10-----------------------||
|-12---12----------8--(8)-------|-12----12-10----10--8-----------------||
|-10---10---10--8---------10--8-|------------------------10-(10)-------||
|-------------------------------|--------------------------------------||


 Guitar Solo
  Eb/G              G5            F5
  Gtrs I, II
   PM------------|
   |--3--|  |--3--|  |3-|   |--3---|
   E  E  E  E  E  E  Q  E  +E   E  E
|------------------------------------|
|------------------------------------|
|------------------------------------|
|------------------------------------|
|--6--6--6--6--6--6--5--5--(5)--5--3-|
|--3--3--3--3--3--3--3--3--(3)--3--1-|
|
| Gtr III
|  |--3--|  |--3--|  |3-|   |--3---|
|  E  E  E  E  E  E  Q  E  +E   E  E
|------------------------------------|
|------------------------------------|
|-12-12-12-12-12-12-10-12-(12)-12-10-|
|------------------------------------|
|------------------------------------|
|------------------------------------|


  Eb/G              G5            F5   Eb/G              G5            F5
   PM------------|                      PM------------|
   |--3--|  |--3--|  |3-|   |--3---|    |--3--|  |--3--|  |3-|   |--3---|
   E  E  E  E  E  E  Q  E  +E   E  E    E  E  E  E  E  E  Q  E  +E   E  E
|------------------------------------|------------------------------------|
|------------------------------------|------------------------------------|
|------------------------------------|------------------------------------|
|------------------------------------|------------------------------------|
|--6--6--6--6--6--6--5--5--(5)--5--3-|--6--6--6--6--6--6--5--5--(5)--5--3-|
|--3--3--3--3--3--3--3--3--(3)--3--1-|--3--3--3--3--3--3--3--3--(3)--3--1-|
|
|  |--3--|  |--3--|  |3-|   |--3---|    |--3--|  |--3--|  |3-|   |--3---|
|  E  E  E  E  E  E  Q  E  +E   E  E    E  E  E  E  E  E  Q  E  +E   E  E
|------------------------------------|------------------------------------|
|-------------------11---------------|---------------------------------11-|
|-12-12-12-12-12-12----12-(12)-12-10-|-12-12-12-12-12-12-10-12-(12)-12----|
|------------------------------------|------------------------------------|
|------------------------------------|------------------------------------|
|------------------------------------|------------------------------------|


  Eb/G              G5
   |--3--|  |--3--|  |--3--|  |--3--|
   E  E  E  E  E  E  E  E  E  E  E  E
|-------------------------------------|
|-------------------------------------|
|-------------------------------------|
|-------------------------------------|
|--6--6--6--6--6--6--5--5--5--5--5--5-|
|--3--3--3--3--3--3--3--3--3--3--3--3-|
|
|  |--3--|  |--3--|  |--3--|  |--3--|
|  E  E  E  E  E  E  E  E  E  E  E  E
|-------------------------------------|
|-13-11----11-------------------------|
|-------12----12-10-12-10----10-------|
|-------------------------12----12-10-|
|-------------------------------------|
|-------------------------------------|


  Gm                             F
   W           +W                W
|-----------|------------------|-----------------|
|-----------|------------------|-----------------|
|-----------|------------------|-----------------|
|-----------|------------------|-----------------|
|--1--------|--(1)-------------|-0---------------|
|--3--------|--(3)-------------|-1---------------|
|
|  ~~~~~~~~~~~~~~~~              ~~
|                                        |-3--|
|  W           +H     H          H.      E  E E
|-----------|------------------|-----------------|
|-----------|------------------|-----------------|
|-----------|------------------|-----------------|
|-----------|------------------|-----------------|
|-10--------|-(10)----8tr10----|-8-------8h10p8--|
|-----------|------------------|-----------------|


                   N.C.
  +W                W
|----------------|--------------|
|----------------|--------------|
|----------------|--------------|
|----------------|--------------|
|-(0)------------|--1-----------|
|-(1)------------|--0-----------|
|
|  ~~~              ~~~~~
|          |-3-|
|  H.      E E E    W
|----------------|--------------|
|----------x-x-x-|-18b20--------|
|----------------|--------------|
|----------------|--------------|
|--0-------------|--------------|
|----------------|--------------|


                                                          F
  +W                                                       W
|-------------------------------------------------------|-------------------------|
|-------------------------------------------------------|-------------------------|
|-------------------------------------------------------|-------------------------|
|-------------------------------------------------------|-------------------------|
|-(1)---------------------------------------------------|--0----------------------|
|-(0)---------------------------------------------------|--1----------------------|
|
|  |----3----|  |---3----|     |---3----|  |----3-----|    |-3-|
|  E   E     E  E     E  E     E  E     E  E     +E   E    Q  +E      +H      Q
|-15--------15-------15-------15-------15---------------|-------------------------|
|--------------18b20----18b20----18b20----18b20r(18)p15-|-18-(18)b20r(18)----16---|
|-----17b19---------------------------------------------|-------------------------|
|-------------------------------------------------------|-------------------------|
|-------------------------------------------------------|-------------------------|
|-------------------------------------------------------|-------------------------|


  F#                          Gm
   W                           W
|---------------------------|------------------|
|---------------------------|------------------|
|---------------------------|------------------|
|---------------------------|------------------|
|--1------------------------|--1---------------|
|--2------------------------|--3---------------|
|
|                              ~~~~~~~~~~~
|  |---3----|    |--3---|
|  q   q    q    q   Q  Q      Q      +H.
|---------------------------|-20b22--(20)------|
|-15-[16]-[15]-[16]-18-16---|------------------|
|---------------------------|------------------|
|---------------------------|------------------|
|---------------------------|------------------|
|---------------------------|------------------|


  +W
|----------------------------------------|
|----------------------------------------|
|----------------------------------------|
|----------------------------------------|
|-(1)------------------------------------|
|-(3)------------------------------------|
|
|  |---3----|      |3-|       |---3----|
|  Q     Q  Q      Q  E      +E   +E   E
|-20b22-20-20pb22-20-20b22==(20)r(20)p18-|
|----------------------------------------|
|----------------------------------------|
|----------------------------------------|
|----------------------------------------|
|----------------------------------------|


  F
   W                             +W
|------------------------------|------------------|
|------------------------------|------------------|
|------------------------------|------------------|
|------------------------------|------------------|
|--0---------------------------|-(0)--------------|
|--1---------------------------|-(1)--------------|
|
|  |---3---|           |--3--|          |-3-|
|  Q      +E   +H      E  E  E    H     E E E Q
|-20b22==(20)r(20)----18h20p18-|------------------|
|------------------------------|-20\--------------|
|------------------------------|------------------|
|------------------------------|--------x-x---x/--|
|------------------------------|------------------|
|------------------------------|------------------|


  N.C.
   W
|-------------------------------------------------|
|-------------------------------------------------|
|-------------------------------------------------|
|-------------------------------------------------|
|--1----------------------------------------------|
|--0----------------------------------------------|
|
|  |---3----|     |3-|     |---3----|     |3-|
|  E     E  E     E  Q     E     E  E     E  Q
|-------15-------15-------------15-------15-------|
|-18b20----18b20----18b20-18b20----18b20----18b20-|
|-------------------------------------------------|
|-------------------------------------------------|
|-------------------------------------------------|
|-------------------------------------------------|


  +W
|---------------------------------------------------------|
|---------------------------------------------------------|
|---------------------------------------------------------|
|---------------------------------------------------------|
|-(1)-----------------------------------------------------|
|-(0)-----------------------------------------------------|
|
|  |---3----|     |---3----|  |---3----|     |----3-----|
|  E     E  E     E  E     E  E     E  E     E     +E   E
|-------15-------15-------15-------15-------18b20r(18)p15-|
|-18b20----18b20----18b20----18b20----18b20---------------|
|---------------------------------------------------------|
|---------------------------------------------------------|
|---------------------------------------------------------|
|---------------------------------------------------------|


  F                                     F#
   W                                     W
|-------------------------------------|--------------------------------------||
|-------------------------------------|--------------------------------------||
|-------------------------------------|--------------------------------------||
|-------------------------------------|--------------------------------------||
|--0----------------------------------|--1-----------------------------------||
|--1----------------------------------|--2-----------------------------------||
|
|  |--3--|  |--3--|  |--3--|  |--3--|    |--3--|  |--3--|  |--3--|  |--3--|
|  E  E  E  E  E  E  E  E  E  E  E  E    E  E  E  E  E  E  E  E  E  E  E  E
|-18p15-------------------------------|--------------------------------------||
|----------18p15----------------------|--------------------------------------||
|-------17----------17p15-------------|--------------------------------------||
|----------------17----------17p15----|-------15-------15-------15-----------||
|-------------------------17-------17-|-15h17----15h17----15h17----17-15-13--||
|-------------------------------------|--------------------------------------||


 Outro
  G5         F5G5    F5  G5        F5G5        F#5       F5F#5   F5
   |3| |3| |-3-| |-3-|   |3| |3| |-3-| |-3-|   |3| |3| |-3-| |-3-|
   Q E Q E E E E E E E   Q E Q E E E E E E E   Q E Q E E E E E E E
|----------------------|---------------------|----------------------|
|----------------------|---------------------|----------------------|
|----------------------|---------------------|----------------------|
|----------------------|---------------------|----------------------|
|--5---5---5---5---5---|-5---5---5---5---5-5-|-4---4---4---4---4----|
|--3---3---3-1-3---3-1-|-3---3---3-1-3---3-3-|-2---2---2-1-2---2-1--|
|
|  |3|
|  Q E Q   H             W                     W
|----------------------|---------------------|----------------------|
|----------------------|---------------------|----------------------|
|----------------------|---------------------|----------------------|
|----------------------|---------------------|----------------------|
|----------------------|---------------------|----------------------|
|-15-------------------|---------------------|----------------------|


  F#5       F5F#5       F5        E5F5    E5  F5        E5F5    E5
  Gtrs I, II
  |3| |3| |-3-| |-3-|   |3| |3| |-3-| |-3-|   |3| |3| |-3-| |-3-|
  Q E Q E E E E E E E   Q E Q E E E E E E E   Q E Q E E E E E E E
|---------------------|---------------------|----------------------|
|---------------------|---------------------|----------------------|
|---------------------|---------------------|----------------------|
|---------------------|---------------------|----------------------|
|-4---4---4---4---4-4-|-3---3---3---3---3---|-3---3---3---3---3----|
|-2---2---2-1-2---2-2-|-1---1---1-0-1---1-0-|-1---1---1-0-1---1-0--|


                                                E5VIEb5 D5C#C5  G5E5
  |3| |3| |-3-| |-3-|   |3| |3| |-3-| |-3-|     |3| |3| |-3-| |-3-|
  Q E Q E E E E E E E   Q E Q E E E E E E E     Q E Q E E E E E E E
|---------------------|---------------------||-----------------------|
|---------------------|---------------------||o----------------------|
|---------------------|---------------------||-----------------------|
|---------------------|---------------------||--9---8---7-6-5--------|
|-2---2---2---2---2---|-2---2---2---2---2---||o-7---6---5-4-3---5-2--|
|-0---0---0-0-0---0-0-|-0---0---0-0-0---0-0-||--0---------------3-0--|


  E5VIEb5 D5C#C5  G5E5  E5VIEb5 D5C#C5  G5E5  E5VIEb5     A5
                                                      PM|
  |3| |3| |-3-| |-3-|   |3| |3| |-3-| |-3-|   |3| |3| |-3-|
  Q E Q E E E E E E E   Q E Q E E E E E E E   Q E Q E E E E +Q    4x
|---------------------|---------------------|---------------------||
|---------------------|---------------------|--------------------o||
|---------------------|---------------------|-------------2-(2)---||
|-9---8---7-6-5-------|-9---8---7-6-5-------|-9---8-------2-(2)---||
|-7---6---5-4-3---5-2-|-7---6---5-4-3---5-2-|-7---6-------0-(0)--o||
|-0---------------3-0-|-0---------------3-0-|-0-------0-0---------||


  |3| |3| |-3-| |-3-|   |3| |3| |-3-| |-3-|
  Q E Q E E E E E E E   Q E Q E E E E E E E
|---------------------|---------------------|
|---------------------|---------------------|
|---------------------|---------------------|
|---------------------|---------------------|
|-7---6---5-4-3-------|-7---6---5-4-3-------|
|-----------------3-0-|-----------------3-0-|


  |3| |3| |-3-| |-3-|   |3| |3| |-3-|
  Q E Q E E E E E E E   Q E Q E E E E Q
|---------------------|--------------------*|
|---------------------|--------------------*|
|---------------------|--------------------*|
|---------------------|--------------------*|
|-7---6---5-4-3-------|-7---6---5-4-3------*|
|-----------------3-0-|--------------------*|



Duration Legend
---------------
W - whole; H - half; Q - quarter; E - 8th; S - 16th; T - 32nd; X - 64th; a - acciaccatura
+ - note tied to previous; . - note dotted; .. - note double dotted
Uncapitalized letters represent notes that are staccato (1/2 duration)
Irregular groupings are notated above the duration line
Duration letters will always appear directly above the note/fret number it represents the
duration for.  Duration letters with no fret number below them represent rests.  Multi-
bar rests are notated in the form Wxn, where n is the number of bars to rest for.  Low
melody durations appear below the staff

Tablature Legend
----------------
 h   - hammer-on
 p   - pull-off
 b   - bend
 pb  - pre-bend
 r   - bend release (if no number after the r, then release immediately)
 /\  - slide into or out of (from/to "nowhere")
 s   - legato slide
 S   - shift slide
 - natural harmonic
[n]  - artificial harmonic
n(n) - tapped harmonic
 ~   - vibrato
 tr  - trill
 T   - tap
 TP  - trem. picking
 PM  - palm muting
\n/  - tremolo bar dip; n = amount to dip
 \n  - tremolo bar down
 n/  - tremolo bar up
/n\  - tremolo bar inverted dip
 =   - hold bend; also acts as connecting device for hammers/pulls
 <> - volume swell (louder/softer)
 x   - on rhythm slash represents muted slash
 o   - on rhythm slash represents single note slash

Misc Legend
-----------
 |  - bar
||  - double bar
||o - repeat start
o|| - repeat end
*|  - double bar (ending)
 :  - bar (freetime)
 $  - Segno
 &  - Coda
Tempo markers -  = BPM(8/16=s8/s16), where s8 = swing 8ths, s16 = swing 16ths


            
            
Suggest correction
Creating personal tab
Creating personal tab
You can edit any tab online and save it as your Personal.

You can edit, replace or remove any tab part or add personal notes – all changes will be seen only by you.

Personal tabs can be accessed anytime from any device, even offline.
Learn more »
Give kudos to tab author, rate the tab!
1 2 3 4 5
comments
print report bad tab
guest
You may want to rate the tab now too:
select rating
Wanna post a correction for this tab? Suggest correction