Oops, an error
Loading. Please wait.

Im The Man bass

version 1
version 1

Whole song

Interactive

by Anthrax
1,621 views 6 this week
no commentswrite comment
1 2 3 4 5
1 last vote to show rating
add to favorites
×
Save as Personal and add changes to this tab that will be seen only by you. Learn more ›
×
You can save this tab as Personal to edit and correct it or add notes. All changes will be seen only by you. Learn more »
launch autoscroll
font size
0
reset
guitar tuner
backing track
0:00
0:00
edit
Autoscroll
slow
fast
+/-
esc
set tempo
stop
Anthrax
I'm The Man

Key:
x = times a number

Intro/part of chorus
Gb|------------------------------------|
Db|------------------------------------|
Ab|----3-----3-3-6-4-3-4-4-7-6-4-4-3--3|
Eb|4-4---5-4---------------------------|

1st Verse and 2nd Verse
Gb|------------------------------|
Db|------------------------------|
Ab|------------------------------|
Eb|1------------1-1-4-4-0-0-2-2-1|

Chorus
Gb|-------------------------------|---------------|-----|
Db|-------------------------------|---------------|-----|
Ab|3-3-3--------------------------|3-3-3----------|-----|
Eb|------5-4-4-4-5-4-4-4-5-2-2-2-2|------5-4-4-4-5|Intro|

3rd Verse
Gb|------------------------|
Db|------------------------|
Ab|------------------------|
Eb|1(x16)-1-1-0-0-1-1-2-2-1|

4th Verse
Gb|-------------------------------|
Db|-------------------------------|
Ab|-------------------------------|
Eb|1------1------1-1-4-4-2-2-0-0-1|

Chorus

5th Verse
Gb|------------------------------|
Db|------------------------------|
Ab|------------------------------|
Eb|1------------1-1-4-4-2-2-0-0-1|

6th Verse
Gb|------------------------|
Db|------------------------|
Ab|------------------------|
Eb|1(x16)-1-1-0-0-1-1-2-2-1|

Chorus

7th Verse
Gb|-------------------------------|
Db|-------------------------------|
Ab|-------------------------------|
Eb|1------1------1-1-4-4-2-2-0-0-1|

8th Verse
Gb|-----------------------------|
Db|-----------------------------|
Ab|-----------------------------|
Eb|1-----------1-1-4-4-2-2-0-0-1|

            
            
Suggest correction
Creating personal tab
Creating personal tab
You can edit any tab online and save it as your Personal.

You can edit, replace or remove any tab part or add personal notes – all changes will be seen only by you.

Personal tabs can be accessed anytime from any device, even offline.
Learn more »
Give kudos to tab author, rate the tab!
1 2 3 4 5
comments
print report bad tab
guest
You may want to rate the tab now too:
select rating
Wanna post a correction for this tab? Suggest correction