Oops, an error
Loading. Please wait.

Keep It In The Family tab

version 2
version 2

Whole song

Interactive

by Anthrax
1,252 views 1 this week
no commentswrite comment
1 2 3 4 5
3 more votes to show rating
add to favorites
×
Save as Personal and add changes to this tab that will be seen only by you. Learn more ›
×
You can save this tab as Personal to edit and correct it or add notes. All changes will be seen only by you. Learn more »
launch autoscroll
font size
0
reset
how to read this tab
guitar tuner
edit
Autoscroll
slow
fast
+/-
esc
set tempo
stop
#----------------------------------PLEASE NOTE---------------------------------#
#This file is the author's own work and represents their interpretation of the #
#song. You may only use this file for private study, scholarship, or research. #
#------------------------------------------------------------------------------#

KEEP IT IN THE FAMILY (LIVE)
As recorded by Anthrax
(From the 1991 EP ATTACK OF THE KILLER B'S)

Transcribed by Mike Sheehan
	

Words and Music by Anthrax

D5
0 0 0 x x x
	
Eb5
1 1 x x x x
	
F5
3 3 3 x x x
	
F#5
4 4 4 x x x

G5
5 5 5 x x x
	
Ab5
6 6 6 x x x
	
A5
7 7 7 x x x
	
D5XII
12 12 x x x x

C5
x 3 5 5 x x
	
Db5
x 4 6 6 x x
	
D5V
x 5 7 7 x x

Gtr I (Db Ab Db Gb Bb Eb) - 'Scott Ian'
Gtr II (Db Ab Db Gb Bb Eb) - 'Dan Spitz'

 Intro
  Q=112
  D5         N.C.
 4/4
  Gtr I      Gtrs I, II
                 PM--|     PM--|       PM--|     PM--|
  W           E  E E E  E  E E E    E  E E E  E  E E E
|----------|---------------------|----------------------||
|----------|---------------------|----------------------||
|----------|---------------------|----------------------||
|-0--------|---------------------|----------------------||
|-0--------|-<3>-------<3>-------|-<3>-------<2>--------||
|-0--------|-----0-0-0-----0-0-0-|-----0-0-0-----0-0-0--||


    (D)           G5Ab5 (D)                                   G5Ab5
    PM----------|       PM----------------------------------|
    E E E E E E E S S   E E E E S S S S E S S   E E E E E E E S S
||--------------------|-----------------------|--------------------|
||o-------------------|-----------------------|--------------------|
||--------------------|-----------------------|--------------------|
||--------------------|-----------------------|--------------------|
||o---------------5h6-|-----------------------|---------------5h6--|
||--0-0-0-0-0-0-0-5-6-|-0-0-0-0-0-0-0-0-0-0-0-|-0-0-0-0-0-0-0-5-6--|


  1.,2.             3.
  (D)     F5AbD5     (D)     F5Ab5 D5
                    3/4           4/4
  PM----|            PM----|
  E E E E E E Q   3x E E E E E E   W          +W
|-----------------||-------------|----------|--------|
|----------------o||-------------|----------|--------|
|-----------------||-------------|----------|--------|
|-----------------||-------------|-0--------|-(0)----|
|---------3-6-0--o||---------3-6-|-0--------|-(0)----|
|-0-0-0-0-3-6-0---||-0-0-0-0-3-6-|-0--------|-(0)----|


  (DAbA5(DAbA5(DAb5 (D) A5(DA5        D5
  PM----------|     PM------------|
  E E E E E E E E   E E E E S S S S a  E  E
|-----------------|-------------------------|
|-----------------|-------------------------|
|-----------------|-------------------------|
|-----------------|-------------------------|
|---6-7---6-7---6-|---6-7---7-7-7-7-7s12-12-|
|-0-6-7-0-6-7-0-6-|-0-6-7-0-7-7-7-7-7s12-12-|


  (DAbA5(DAbA5(DAb5 (DAbA5(DF5AbD5
  PM----------|     PM----|
  E E E E E E E E   E E E E E E Q
|-----------------|-----------------|
|-----------------|-----------------|
|-----------------|-----------------|
|-----------------|-----------------|
|---6-7---6-7---6-|---6-7---3-6-0---|
|-0-6-7-0-6-7-0-6-|-0-6-7-0-3-6-0---|


  (D)                                                           F5AbD5
  PM----------------------------------------------------------|
  E E E E E E E E   E E E E E E E E   E E E E E E E E   E E E E E E Q
|-----------------|-----------------|-----------------|----------------|
|-----------------|-----------------|-----------------|----------------|
|-----------------|-----------------|-----------------|----------------|
|-----------------|-----------------|-----------------|----------------|
|-----------------|-----------------|-----------------|---------3-6-0--|
|-0-0-0-0-0-0-0-0-|-0-0-0-0-0-0-0-0-|-0-0-0-0-0-0-0-0-|-0-0-0-0-3-6-0--|


    F5(D) F5F#(DD5      F5(DF5F#(DD5      F5(D) F5F#(DD5      F5(DF5F#(DD5
      PM|     PM  PM--|   PM    PM  PM      PM|     PM  PM--|   PM    PM  PM
    E E E E E E E E   E E E E E E E E  3x E E E E E E E E   E E E E E E E E
||------------------|------------------||-----------------|------------------||
||o-----------------|-----------------o||-----------------|------------------||
||------------------|------------------||-----------------|------------------||
||------------------|------------------||-----------------|------------------||
||o-3-----3-4---0---|---3---3-4---0---o||-3-----3-4---0---|---3---3-4---0----||
||--3-0-0-3-4-0-0-0-|-0-3-0-3-4-0-0-0--||-3-0-0-3-4-0-0-0-|-0-3-0-3-4-0-0-0--||


   Verse
    F5(D) F5F#(DD5      F5(DF5F#(DD5    F5(D) F5F#(DD5
      PM|     PM  PM--|   PM    PM  PM    PM|     PM  PM
    E E E E E E E E   E E E E E E E E   E E E E E E E E
||------------------|-----------------|-----------------|
||o-----------------|-----------------|-----------------|
||------------------|-----------------|-----------------|
||------------------|-----------------|-----------------|
||o-3-----3-4---0---|---3---3-4---0---|-3-----3-4---0---|
||--3-0-0-3-4-0-0-0-|-0-3-0-3-4-0-0-0-|-3-0-0-3-4-0-0-0-|


    F5(D) F5AbD5   F5(D) F5F#(DD5      F5(DF5F#(DD5
  PM  PM|            PM|     PM  PM--|   PM    PM  PM
  E E E E E E Q    E E E E E E E E   E E E E E E E E
|----------------|-----------------|-----------------|
|----------------|-----------------|-----------------|
|----------------|-----------------|-----------------|
|----------------|-----------------|-----------------|
|---3-----3-6-0--|-3-----3-4---0---|---3---3-4---0---|
|-0-3-0-0-3-6-0--|-3-0-0-3-4-0-0-0-|-0-3-0-3-4-0-0-0-|


  F5(D) F5F#(DD5      F5(D) F5AbD5   F5(D) F5F#(DD5
    PM|     PM  PM--|   PM----|        PM|     PM  PM
  E E E E E E E E   E E E E E E Q    E E E E E E E E
|-----------------|----------------|-----------------|
|-----------------|----------------|-----------------|
|-----------------|----------------|-----------------|
|-----------------|----------------|-----------------|
|-3-----3-4---0---|---3-----3-6-0--|-3-----3-4---0---|
|-3-0-0-3-4-0-0-0-|-0-3-0-0-3-6-0--|-3-0-0-3-4-0-0-0-|


    F5(DF5F#(DD5    F5(D) F5F#(DD5      F5(D) F5AbD5   F5(D) F5F#(DD5
  PM  PM    PM  PM    PM|     PM  PM--|   PM|            PM|     PM  PM
  E E E E E E E E   E E E E E E E E   E E E E E E Q    E E E E E E E E
|-----------------|-----------------|----------------|-----------------|
|-----------------|-----------------|----------------|-----------------|
|-----------------|-----------------|----------------|-----------------|
|-----------------|-----------------|----------------|-----------------|
|---3---3-4---0---|-3-----3-4---0---|---3-----3-6-0--|-3-----3-4---0---|
|-0-3-0-3-4-0-0-0-|-3-0-0-3-4-0-0-0-|-0-3-0-0-3-6-0--|-3-0-0-3-4-0-0-0-|


    F5(DF5F#(DD5    F5(D) F5F#(DD5      F5D5  N.C.
  PM  PM    PM  PM    PM|     PM  PM--|   PM
  E E E E E E E E   E E E E E E E E   E E E E E E E E
|-----------------|-----------------|-----------------|
|-----------------|-----------------|-----------------|
|-----------------|-----------------|-----------------|
|-----------------|-----------------|---------5p4-----|
|---3---3-4---0---|-3-----3-4---0---|---3---------5s3-|
|-0-3-0-3-4-0-0-0-|-3-0-0-3-4-0-0-0-|-0-3-0-0---------|


  Q=175
  Eb5  D5     F5(D) F5F#(DD5      F5(DF5F#(DD5
                PM|     PM  PM--|   PM    PM  PM
  H    H      E E E E E E E E   E E E E E E E E
|-----------|-----------------|-----------------|
|-----------|-----------------|-----------------|
|-----------|-----------------|-----------------|
|-1----0----|-----------------|-----------------|
|-1----0----|-3-----3-4---0---|---3---3-4---0---|
|-1----0----|-3-0-0-3-4-0-0-0-|-0-3-0-3-4-0-0-0-|


  F5(D) F5F#(DD5      F5(D) F5AbD5   F5(D) F5F#(DD5
    PM|     PM  PM--|   PM|            PM|     PM  PM
  E E E E E E E E   E E E E E E Q    E E E E E E E E
|-----------------|----------------|-----------------|
|-----------------|----------------|-----------------|
|-----------------|----------------|-----------------|
|-----------------|----------------|-----------------|
|-3-----3-4---0---|---3-----3-6-0--|-3-----3-4---0---|
|-3-0-0-3-4-0-0-0-|-0-3-0-0-3-6-0--|-3-0-0-3-4-0-0-0-|


    F5(DF5F#(DD5    F5(D) F5F#(DD5      F5(D) F5AbD5
  PM  PM    PM  PM    PM|     PM  PM--|   PM----|
  E E E E E E E E   E E E E E E E E   E E E E E E Q
|-----------------|-----------------|----------------||
|-----------------|-----------------|----------------||
|-----------------|-----------------|----------------||
|-----------------|-----------------|----------------||
|---3---3-4---0---|-3-----3-4---0---|---3-----3-6-0--||
|-0-3-0-3-4-0-0-0-|-3-0-0-3-4-0-0-0-|-0-3-0-0-3-6-0--||


 Pre Chorus
  D5V   DbC5N.C.      D5V DbC5N.C.    D5V   DbC5N.C.
    PM|     PM------|   PM    PM--|     PM|     PM--|
  E E E E E E E E   E E E E E E E E   E E E E E E E E
|-----------------|-----------------|-----------------|
|-----------------|-----------------|-----------------|
|-7-----6s5-------|---7---6s5-------|-7-----6s5-------|
|-7-----6s5-------|---7---6s5-------|-7-----6s5-------|
|-5-----4s3-------|---5---4s3-------|-5-----4s3-------|
|---0-0-----0-0-0-|-0---0-----0-0-0-|---0-0-----0-0-0-|


    D5V   N.C.      D5V   DbC5N.C.      D5V DbC5N.C.
  PM  PM              PM|     PM------|   PM    PM--|
  E E E E E E E E   E E E E E E E E   E E E E E E E E
|-----------------|-----------------|-----------------|
|-----------------|-----------------|-----------------|
|---7---7---------|-7-----6s5-------|---7---6s5-------|
|---7---7-7-7-7-7-|-7-----6s5-------|---7---6s5-------|
|---5---5-6-6-6-6-|-5-----4s3-------|---5---4s3-------|
|-0---0-----------|---0-0-----0-0-0-|-0---0-----0-0-0-|


  D5V   DbC5N.C.      D5V   N.C.      Eb5
                                     2/4
    PM|     PM------|   PM
  E E E E E E E E   E E E E E E E E   H
|-----------------|-----------------|------|
|-----------------|-----------------|------|
|-7-----6s5-------|---7---7---------|------|
|-7-----6s5-------|---7---7-7-7-7-7-|------|
|-5-----4s3-------|---5---5-6-6-6-6-|-1----|
|---0-0-----0-0-0-|-0---0-----------|-1----|


  D5                     D5V      (D)                 Eb5
 4/4
     PM------|         PM         PM----------------|
  Q  E E E E E E   +E  E Q  +Q    E S S   E S S E S S H
|----------------|----------------------|------------------|
|----------------|----------------------|------------------|
|----------------|----------------------|------------------|
|----------------|-------7--(7)\--------|------------------|
|-0------------0-|-(0)---5--(5)\--------|-------------1----|
|-0--0-0-0-0-0-0-|-(0)-0----------0-0-0-|-0-0-0-0-0-0-1----|


  D5   D5V   Db5C5         Eb5    D5
     PM                              PM------|
  Q  E E +E  Q  E   +H     H      Q  E E E E E E
|-----------------|-------------|----------------|
|-----------------|-------------|----------------|
|------7-(7)-6--5-|-(5)---------|----------------|
|------7-(7)-6--5-|-(5)---------|----------------|
|-0----5-(5)-4--3-|-(3)----1----|-0------------0-|
|-0--0------------|--------1----|-0--0-0-0-0-0-0-|


        D5V      (D)                 Eb5    D5   D5V   Db5C5
      PM         PM----------------|
  +E  E Q  +Q    E S S   E S S E S S H      Q.   E +E  Q  E
|----------------------|------------------|-----------------|
|----------------------|------------------|-----------------|
|----------------------|------------------|------7-(7)-6--5-|
|-------7--(7)\--------|------------------|------7-(7)-6--5-|
|-(0)---5--(5)\--------|-------------1----|-0----5-(5)-4--3-|
|-(0)-0----------0-0-0-|-0-0-0-0-0-0-1----|-0---------------|


                               Chorus
  $
                     Ab5G5 D5
  +W           +Q.   Q  Q  E    +W
|------------|---------------||--------|
|------------|---------------||--------|
|-(5)--------|-(5)-----------||--------|
|-(5)--------|-(5)-----------||--------|
|-(3)--------|-(3)---6--5--0-||-(0)----|
|------------|-------6--5--0-||-(0)----|


        D5V   Db5C5                     Ab5G5 D5
  +Q.   E +E  Q  E   +W           +Q.   Q  Q  E
|------------------|------------|---------------|
|------------------|------------|---------------|
|-------7-(7)-6--5-|-(5)--------|-(5)-----------|
|-------7-(7)-6--5-|-(5)--------|-(5)-----------|
|-(0)---5-(5)-4--3-|-(3)--------|-(3)---6--5--0-|
|-(0)--------------|------------|-------6--5--0-|


                     D5V   Db5C5
  +W           +Q.   E +E  Q  E   +W
|------------|------------------|--------|
|------------|------------------|--------|
|------------|-------7-(7)-6--5-|-(5)----|
|------------|-------7-(7)-6--5-|-(5)----|
|-(0)--------|-(0)---5-(5)-4--3-|-(3)----|
|-(0)--------|-(0)--------------|--------|


        Ab5G5 D5                     D5V   Db5C5
  +Q.   Q  Q  E   +W           +Q.   E +E  Q  E
|---------------|------------|------------------|
|---------------|------------|------------------|
|-(5)-----------|------------|-------7-(7)-6--5-|
|-(5)-----------|------------|-------7-(7)-6--5-|
|-(3)---6--5--0-|-(0)--------|-(0)---5-(5)-4--3-|
|-------6--5--0-|-(0)--------|-(0)--------------|


                              1.
                    To Coda
                     Ab5G5 D5
                                   PM----|
  +W           +Q.   Q  Q  E   +E  E E E E Q.
|------------|---------------|------------------|
|------------|---------------|------------------|
|-(5)--------|-(5)-----------|------------------|
|-(5)--------|-(5)-----------|------------------|
|-(3)--------|-(3)---6--5--0-|-(0)---------0----|
|------------|-------6--5--0-|-(0)-0-0-0-0-0----|


                                                  Q=112
                                                  F5   Eb5
                                     2/4         4/4
  PM--|        PM----|
  E E E E +Q   E E   E E Q  E E E E   +E  E E E   H    H
|------------------|----------------|-----------|------------||
|------------------|----------------|-----------|-----------o||
|------------------|----------------|-----------|------------||
|------------------|----------------|-----------|------------||
|-------0-(0)------|---0----------0-|-(0)-------|-3----1----o||
|-0-0-0-0-(0)--0-0-|-0-0----0-0-0-0-|-(0)-0-0-0-|-3----1-----||


  2.175
    D5
    PM    PM|   PM    PM    PM|   PM    PM    PM|   PM    PM----------|
  E E E E E E E E   E E E E E E E E   E E E E E E E E   E E E E E E E E
|-----------------|-----------------|-----------------|-----------------|
|-----------------|-----------------|-----------------|-----------------|
|-----------------|-----------------|-----------------|-----------------|
|-----------------|-----------------|-----------------|-----------------|
|-----0-0---------|-----0-0---------|-----0-0---------|-----------------|
|---0-0-0-0-0---0-|---0-0-0-0-0---0-|---0-0-0-0-0---0-|---0-0-0-0-0---0-|


    PM    PM|   PM    PM    PM|   PM    PM    PM|   PM
  E E E E E E E E   E E E E E E E E   E E E E E E E E
|-----------------|-----------------|-----------------||
|-----------------|-----------------|-----------------||
|-----------------|-----------------|-----------------||
|-----------------|-----------------|-----------------||
|-----0-0---------|-----0-0---------|-----0-0---------||
|---0-0-0-0-0---0-|---0-0-0-0-0---0-|---0-0-0-0-0---0-||


 Guitar Solo
    F5  F#5 G5  D5
  Gtr I
                PM      PM    PM|   PM
  E E E E E E E E    E  E E E E E E E    E  E E E E E  E  E
|-----------------|-------------------|---------------------|
|-----------------|-------------------|---------------------|
|-----------------|-------------------|---------------------|
|---3---4---5-----|-------------------|---------------------|
|---3---4---5-----|-------0-0---------|-----0-0-0-0-0-----0-|
|---3---4---5---0-|-----0-0-0-0-0---0-|-----0-0-0-0-0-----0-|
|
| Gtr II
|               ~~~~~~~~      ~~~~~~~~~~~~~~
| H       Q   E E   +E  E E E H         +H.           +E  E
|-----------------|-------------------|---------------------|
|-----------------|-------------------|---------------------|
|---------------7-|-(7)-7-7-7-7-------|-(7)-----------(7)-7-|
|---------------x-|-----x-x-x-x-------|-------------------x-|
|---------------5-|-(5)-5-5-5-5-------|-(5)-----------(5)-5-|
|-----------------|-------------------|---------------------|


   E   E E E E E E E    E  E E E E E E E
|--------------------|-------------------|
|--------------------|-------------------|
|--------------------|-------------------|
|--------------------|-------------------|
|------0-0-0-0-0---0-|-----0-0-0-0-0---0-|
|------0-0-0-0-0---0-|-----0-0-0-0-0---0-|
|
|            ~~~~~~~~~~~~~~
| +E   E E E H         +W
|--------------------|-------------------|
|--------------------|-------------------|
|-(7)-/8-8-8-8-------|-(8)---------------|
|------x-x-x-x-------|-------------------|
|-(5)-/6-6-6-6-------|-(6)---------------|
|--------------------|-------------------|


  E   E  E  E  E E E E     E  E E E E E E E
|----------------------|--------------------|
|----------------------|--------------------|
|----------------------|--------------------|
|----------------------|--------------------|
|-----0--0--0--0-0---0-|------0-0-0-0-0---0-|
|-----0--0--0--0-0---0-|------0-0-0-0-0---0-|
|
|              ~~~~~~~~~~~~~~~
| E   E  E  E  H          +W
|----------------------|--------------------|
|----------------------|--------------------|
|-8-/10-10-10-10-------|-(10)---------------|
|-x---x--x--x--x-------|--------------------|
|-6--/8--8--8--8-------|--(8)---------------|
|----------------------|--------------------|


   E   E  E E   E  E E E     E   E E  E   E    E E  E
|------------------------|----------------------------|
|------------------------|----------------------------|
|------------------------|----------------------------|
|------------------------|----------------------------|
|------0--0-0---0--0---0-|-------0----0--------0----0-|
|------0--0-0---0--0---0-|-------0----0--------0----0-|
|
|      ~~~~~~~~~~~~                                 ~~~
|  E   Q.      +H           +E   Q    E  +E    E E  E
|------------------------|----------------------------|
|------------------------|-------------------------15-|
|-10-/12------(12)-------|-(12)-12---14-(14)-/17------|
|--x---x-----------------|-------x----x--------x------|
|--8-/10------(10)-------|-(10)-10---12-(12)-/15------|
|------------------------|----------------------------|


        PM       PM|      PM      PM       PM|      PM
    E   E  E  E  E  E  E  E    E  E  E  E  E  E  E  E
|---------------------------|-------------------------|
|---------------------------|-------------------------|
|---------------------------|-------------------------|
|---------------------------|-------------------------|
|----------0--0-------------|--------0--0-------------|
|-------0--0--0--0--0-----0-|-----0--0--0--0--0-----0-|
|
|~~~~~~
|  +E   E  E  E  E  E  E  E    E  E  E  E  E  E  E  E
|---------------------------|-------------------------|
|-(15)-15-15-15-15p13----15-|-15p13----15-15p13-------|
|---------------------14----|-------14----------14s12-|
|---------------------------|-------------------------|
|---------------------------|-------------------------|
|---------------------------|-------------------------|


      PM     PM|     PM      PM        PM---------|
   E  E  E E E E  E  E    E  E  E  E   E  E   E   E
|----------------------|----------------------------|
|----------------------|----------------------------|
|----------------------|----------------------------|
|----------------------|----------------------------|
|--------0-0-----------|--------0--0----------------|
|-----0--0-0-0-0-----0-|-----0--0--0---0--0-------0-|
|
|        ~~                        ~~~~~~~~~~~~~~~
|  E  E  H        E  E    E  E  E  E  +Q     +Q
|----------------------|----------------------------|
|----------------------|----------------------------|
|-10h12-12-------12-12-|-12p10----------------------|
|----------------------|-------12-12-(12)---(12)\---|
|----------------------|----------------------------|
|----------------------|----------------------------|


       PM       PM------|       PM       PM---------|
    E  E  E  E  E  E  E E    E  E  E  E  E     E  E  E
|-------------------------|----------------------------|
|-------------------------|----------------------------|
|-------------------------|----------------------------|
|-------------------------|----------------------------|
|---------0--0------------|--------0--0----------------|
|------0--0--0--0--0----0-|-----0--0--0--0-----0-----0-|
|
|   E  E  E  E  E  E  E E    E  E  E  E  S  S  E  E  E
|-------------------------|----------------------------|
|-------------------------|-20----------20p17----------|
|--------------17---------|----17-------------19p17----|
|-----15-17s19----19-17---|-------19-17-------------19-|
|-/17---------------------|----------------------------|
|-------------------------|----------------------------|


                                                        D5V         Db5      C5
         PM      PM---|             PM
   E     E E  E  E    E         E   E        E  E  E     Q           Q        E
|----------------------------------------|------------------------------------------|
|----------------------------------------|------------------------------------------|
|----------------------------------------|---------------7-----------6--------5-----|
|----------------------------------------|---------------7-----------6--------5-----|
|----------0--0--------------------------|------0--------5-----------4--------3-----|
|--------0-0--0--0----0-------------0----|------0-----------------------------------|
|
|                                            ~~~~
|  S  S  E E  E  E.      S     +E   E       +Q     S  S  S  S  S  S  S  S  E  E
|----------------------------------------|--------------------------------17-20pb22-|
|-20p17------17-20b22---20b22-(20)-20b22-|-(20)---20p17----17-20p17----17-----------|
|-------19-------------------------------|--------------19----------19--------------|
|----------------------------------------|------------------------------------------|
|----------------------------------------|------------------------------------------|
|----------------------------------------|------------------------------------------|


                                  Ab5     G5  D5
   +W               +Q.            Q      Q    E
|-----------------|---------------------------------|
|-----------------|---------------------------------|
|--(5)------------|-(5)-----------------------------|
|--(5)------------|-(5)------------6------5----0----|
|--(3)------------|-(3)------------6------5----0----|
|-----------------|----------------6------5----0----|
|
|         ~~~~                     ~~~~~~~
|  +Q     H.         E     +E   E  E  +Q    E  E
|-(20)--(20)------|-20b22r(20)-17-20-(20)-----------|
|-------(20)------|---------------------------20b22-|
|-----------------|---------------------------------|
|-----------------|---------------------------------|
|-----------------|---------------------------------|
|-----------------|---------------------------------|


                                  D5V        Db5   C5
   +W               +Q.            Q          Q     E
|-----------------|---------------------------------------|
|-----------------|---------------------------------------|
|-----------------|----------------7----------6-----5-----|
|--(0)------------|-(0)------------7----------6-----5-----|
|--(0)------------|-(0)------------5----------4-----3-----|
|--(0)------------|-(0)-----------------------------------|
|
|         ~~~~                                      ~~~~~~
|  +Q    +H.         E     +E   E  E     +E   E  E  E
|-----------------|--------------------------17-----------|
|-(20)--(20)------|-20b22r(20)-17-20b22r(20)----20--------|
|-----------------|--------------------------------19pb21-|
|-----------------|---------------------------------------|
|-----------------|---------------------------------------|
|-----------------|---------------------------------------|


                                       Ab5   G5    D5
   +W                         +Q.       Q     Q     E
|---------------------------|-------------------------|
|---------------------------|-------------------------|
|--(5)----------------------|-(5)---------------------|
|--(5)----------------------|-(5)-------6-----5-----0-|
|--(3)----------------------|-(3)-------6-----5-----0-|
|---------------------------|-----------6-----5-----0-|
|
|  +E   E  E  E  E  E  E  E    E  E  E  E  E  E  E  E
|---------------------------|-------------------------|
|---------------------------|-------------------------|
|-(19)-19-19-19-19p17----19-|-19p17----19-20p17-------|
|---------------------19----|-------19----------19s17-|
|---------------------------|-------------------------|
|---------------------------|-------------------------|


                                 D5VDb5C5
  +W                  +Q.        Q  Q  E
|-------------------|--------------------|
|-------------------|--------------------|
|-------------------|------------7--6--5-|
|-(0)---------------|-(0)--------7--6--5-|
|-(0)---------------|-(0)--------5--4--3-|
|-(0)---------------|-(0)----------------|
|
|        ~~                   ~~~
|  E  E  H     E  E    E   E  H.
|-------------------|--------------------|
|-------------------|--------------------|
|-------------------|--------------------|
|-15h17-17----17-17-|-17--15-------------|
|-------------------|--------17----------|
|-------------------|--------------------|


                                   Ab5 G5  D5
   +W                   +Q.        Q   Q   E
|---------------------|------------------------|
|---------------------|------------------------|
|--(5)----------------|-(5)--------------------|
|--(5)----------------|-(5)--------6---5---0---|
|--(3)----------------|-(3)--------6---5---0---|
|---------------------|------------6---5---0---|
|
|                        |-3-|
|  +E   E E E E E E E    S S S E E E E E E E
|---------------------|------------------------|
|---------------------|------------------------|
|-------------5---5---|--5h7p5-----------------|
|---------5h7---7---7-|--------7-5-3-5-3---3---|
|-(17)\---------------|------------------5-----|
|---------------------|------------------------|


                                D5V     Db5        C5
  +W                 +Q.        Q       Q          E
|------------------|------------------------------------|
|------------------|------------------------------------|
|------------------|------------7-------6----------5----|
|-(0)--------------|-(0)--------7-------6----------5----|
|-(0)--------------|-(0)--------5-------4----------3----|
|-(0)--------------|-(0)--------------------------------|
|
|                                  |---3---|  |---3---|
|  E E E E E E E E    E  E a  Q    E  E    E  E  E    E
|------------------|------------------------------------|
|------------------|--8----8s10s==13-15---13-17-15---13-|
|------5---5h7-7s9-|-----9------------------------------|
|--5s7---7---------|------------------------------------|
|------------------|------------------------------------|
|------------------|------------------------------------|


  +W
|----------------------------------------------|
|----------------------------------------------|
|-(5)------------------------------------------|
|-(5)------------------------------------------|
|-(3)------------------------------------------|
|----------------------------------------------|
|
|  |--3---|  |--3--|  |---3----|
|  E   E  E  E  E  E  E  E  a  E  S  S  S  S
|----------------------------------------------|
|-----13-18-15-13-18-15-13-15s17-20-17-20-17---|
|-14-------------------------------------------|
|----------------------------------------------|
|----------------------------------------------|
|----------------------------------------------|


                        Ab5               G5            D5
  +Q.                    Q                Q              E
|-------------------------------------------------------------|
|-------------------------------------------------------------|
|-(5)---------------------------------------------------------|
|-(5)--------------------6----------------5--------------0----|
|-(3)--------------------6----------------5--------------0----|
|------------------------6----------------5--------------0----|
|
|                     TP
|            |--3--|     |--3--|  |------5------|
|  S   a  S  S  S  S  E  S  S  S  S  S  S    S  S  S  S  S  S
|----------------------------------------------------20-17-15-|
|-20--17s18-22-20-18-18-22-20-18-18-22-20---18-18-20----------|
|-------------------------------------------------------------|
|-------------------------------------------------------------|
|-------------------------------------------------------------|
|-------------------------------------------------------------|


         F5    (D)
               PM------------|
  +Q       Q   S S S S S S S S
|------------------------------|
|------------------------------|
|------------------------------|
|-(0)------3-------------------|
|-(0)------3-------------------|
|-(0)------3---0-0-0-0-0-0-0-0-|
|
|          ~~~~
|  Q      +H.
|-20b22--(20)------------------|
|------------------------------|
|------------------------------|
|------------------------------|
|------------------------------|
|------------------------------|


  F5         Ab5  (D)
                    PM-------------------|
   Q           E. S S S S S   S  S   S   S
|------------------------------------------|
|------------------------------------------|
|------------------------------------------|
|--3-----------6---------------------------|
|--3-----------6---------------------------|
|--3-----------6--0-0-0-0-0---0--0---0---0-|
|
|              ~~~~~~~~~~~~~~~~~~
|  E.    +S   +H             +E     +E
|-20b24r(20)-(20)-----------(20)---(20)\---|
|------------------------------------------|
|------------------------------------------|
|------------------------------------------|
|------------------------------------------|
|------------------------------------------|


  F5 Ab5(D)                 F5 Ab5(D)
          PM------------|           PM------------|
  Q  E. S S S S S S S S S   Q  E. S S S S S S S S S
|-------------------------|--------------------------||
|-------------------------|--------------------------||
|-------------------------|--------------------------||
|-3--6--------------------|-3--6---------------------||
|-3--6--------------------|-3--6---------------------||
|-3--6--0-0-0-0-0-0-0-0-0-|-3--6--0-0-0-0-0-0-0-0-0--||
|
| W                         W
|-------------------------|--------------------------||
|-------------------------|--------------------------||
|-------------------------|--------------------------||
|-------------------------|--------------------------||
|-------------------------|--------------------------||
|-------------------------|--------------------------||


 Bridge
  F5 Ab5(D)                 F5 Ab5(D)                 F5 Ab5(D)
  Gtrs I, II
          PM------------|           PM------------|           PM------------|
  Q  E. S S S S S S S S S   Q  E. S S S S S S S S S   Q  E. S S S S S S S S S
|-------------------------|-------------------------|--------------------------|
|-------------------------|-------------------------|--------------------------|
|-------------------------|-------------------------|--------------------------|
|-3--6--------------------|-3--6--------------------|-3--6---------------------|
|-3--6--------------------|-3--6--------------------|-3--6---------------------|
|-3--6--0-0-0-0-0-0-0-0-0-|-3--6--0-0-0-0-0-0-0-0-0-|-3--6--0-0-0-0-0-0-0-0-0--|


  F5 Ab5(D)                 F5 Ab5(D)                 F5 Ab5(D)
          PM------------|           PM------------|           PM------------|
  Q  E. S S S S S S S S S   Q  E. S S S S S S S S S   Q  E. S S S S S S S S S
|-------------------------|-------------------------|--------------------------|
|-------------------------|-------------------------|--------------------------|
|-------------------------|-------------------------|--------------------------|
|-3--6--------------------|-3--6--------------------|-3--6---------------------|
|-3--6--------------------|-3--6--------------------|-3--6---------------------|
|-3--6--0-0-0-0-0-0-0-0-0-|-3--6--0-0-0-0-0-0-0-0-0-|-3--6--0-0-0-0-0-0-0-0-0--|


  F5 Ab5(D)                 F5 Ab5(D)                 F5 Ab5(D)
          PM------------|           PM------------|           PM------------|
  Q  E. S S S S S S S S S   Q  E. S S S S S S S S S   Q  E. S S S S S S S S S
|-------------------------|-------------------------|--------------------------|
|-------------------------|-------------------------|--------------------------|
|-------------------------|-------------------------|--------------------------|
|-3--6--------------------|-3--6--------------------|-3--6---------------------|
|-3--6--------------------|-3--6--------------------|-3--6---------------------|
|-3--6--0-0-0-0-0-0-0-0-0-|-3--6--0-0-0-0-0-0-0-0-0-|-3--6--0-0-0-0-0-0-0-0-0--|


  D5G5AbD5G5AbD5G5  AbD5F5AbD5G5AbD5  G5AbD5G5AbD5G5Ab5 G5G5AbD5G5AbD5G5
  PM------------------------------------------------------------------|
  E E E E E E E E   E E E E E E E E   E E E E E E E E   E E E E E E E E
|-----------------|-----------------|-----------------|-----------------|
|-----------------|-----------------|-----------------|-----------------|
|-----------------|-----------------|-----------------|-----------------|
|-----------------|-----------------|-----------------|-----------------|
|-0-5-6-0-5-6-0-5-|-6-0-3-6-0-5-6-0-|-5-6-0-5-6-0-5-6-|-0-5-6-0-5-6-0-5-|
|-0-5-6-0-5-6-0-5-|-6-0-3-6-0-5-6-0-|-5-6-0-5-6-0-5-6-|-0-5-6-0-5-6-0-5-|


                                                       D.S. al Coda
  AbD5      N.C.                          Eb5D5              D5VDb5C5
 2/4       4/4
  PM|
  E E E E   S S S S S S e S S S S S S e   Q  H.        +Q.   Q  Q  E
|---------|-----------------------------|------------|----------------||
|---------|-----------------------------|------------|----------------||
|---------|-----------------------------|------------|-------7--6--5--||
|---------|-4h5p4-0-4p0---4h5p4-0-4p0---|------------|-------7--6--5--||
|-6-0-0-0-|-------------3-------------3-|-1--0-------|-(0)---5--4--3--||
|-6-0-0-0-|-----------------------------|-1--0-------|-(0)------------||


  &
  (D)                       D5V   Db5C5      N.C.
      PM------------------|                  PM----------|
   E  E E E E E E E   E E E E +E  Q  E   +E  E E E E E E E
|-------------------|------------------|-------------------|
|-------------------|------------------|-------------------|
|-------------------|-------7-(7)-6--5-|-(5)---------------|
|-------------------|-------7-(7)-6--5-|-(5)---------------|
|-(0)---------------|-------5-(5)-4--3-|-(3)-3-3-3-3-3-3-3-|
|-(0)-0-0-0-0-0-0-0-|-0-0-0------------|-------------------|


        Ab5   G5 D5      (D)                   D5V   Db5C5
  PM--|                                  PM--|
  E E E E +E  Q  E   +E  E E E E E E E   E E E E +E  Q  E
|------------------|-------------------|------------------|
|------------------|-------------------|------------------|
|------------------|-------------------|-------7-(7)-6--5-|
|------------------|-------------------|-------7-(7)-6--5-|
|-3-3-3-6-(6)-5--0-|-(0)---------------|-------5-(5)-4--3-|
|-------6-(6)-5--0-|-(0)-0-0-0-0-0-0-0-|-0-0-0------------|


      N.C.                  Ab5   G5 D5      (D)
      PM------------------|
  +E  E E E E E E E   E E E E +E  Q  E   +E  E E E E E E E
|-------------------|------------------|-------------------|
|-------------------|------------------|-------------------|
|-(5)---------------|------------------|-------------------|
|-(5)---------------|------------------|-------------------|
|-(3)-3-3-3-3-3-3-3-|-3-3-3-6-(6)-5--0-|-(0)---------------|
|-------------------|-------6-(6)-5--0-|-(0)-0-0-0-0-0-0-0-|


        D5V   Db5C5      N.C.                  Ab5   G5 D5
  PM--|                  PM------------------|
  E E E E +E  Q  E   +E  E E E E E E E   E E E E +E  Q  E
|------------------|-------------------|------------------|
|------------------|-------------------|------------------|
|-------7-(7)-6--5-|-(5)---------------|------------------|
|-------7-(7)-6--5-|-(5)---------------|------------------|
|-------5-(5)-4--3-|-(3)-3-3-3-3-3-3-3-|-3-3-3-6-(6)-5--0-|
|-0-0-0------------|-------------------|-------6-(6)-5--0-|


      (D)                   D5V   Db5C5
                      PM--|
  +E  E E E E E E E   E E E E +E  Q  E   +W
|-------------------|------------------|--------|
|-------------------|------------------|--------|
|-------------------|-------7-(7)-6--5-|-(5)----|
|-------------------|-------7-(7)-6--5-|-(5)----|
|-(0)---------------|-------5-(5)-4--3-|-(3)----|
|-(0)-0-0-0-0-0-0-0-|-0-0-0------------|--------|


        Ab5G5 (D)     N.C.
              PM    PM--|   PM  PM----------------|
  +Q.   Q  Q  E   E E E E E E E E   E E E E E E E E
|---------------|-----------------|-----------------|
|---------------|-----------------|-----------------|
|-(5)-----------|-----------------|-----------------|
|-(5)-----------|-----------------|-----------------|
|-(3)---6--5----|-----------------|-----------------|
|-------6--5--0-|---0-3-4---0---0-|---0-0-3-4-0-0-0-|


                        F#5 G5  Ab5   (D)
  PM  PM  PM  PM    PM  PM------|     PM  PM--------|
  E E E E E E E E   E E E E E E E E   E E E E E E E E
|-----------------|-----------------|-----------------|
|-----------------|-----------------|-----------------|
|-----------------|-----------------|-----------------|
|-----------------|-----------------|-----------------|
|-----------------|-----4---5---6---|-----------------|
|-0---3---4---0---|-0---4---5---6---|-0---0-0-0---0---|


  D5                     (D)         N.C.
                         PM  PM|     PM--------|
                                           |-3-|
  E E Q  E E Q    E E Q  E E E E   E E E E Q Q Q
|---------------|----------------|---------------|
|---------------|----------------|---------------|
|---------------|----------------|---------------|
|---------------|----------------|---------------|
|-0-0----0-0----|-0-0------------|---------------|
|-0-0----0-0----|-0-0----0---0-0-|---0-3-4---0-0-|


                                        F5  F#5 G5  D5
  PM------------------------------|
  E E E E E E E E   E E E E E E E E   E E E E E E E E
|-----------------|-----------------|-----------------|
|-----------------|-----------------|-----------------|
|-----------------|-----------------|-----------------|
|-----------------|-----------------|-----------------|
|-----------------|-----------------|---3---4---5---0-|
|-0---0-3-4-0-0-0-|-0-0-0-3-4-0-0---|---3---4---5---0-|


  N.C.
  PM------------------------------------------------|
  E E E E E E E E   E E E E E E E E   E E E E E E E E
|-----------------|-----------------|-----------------|
|-----------------|-----------------|-----------------|
|-----------------|-----------------|-----------------|
|-----------------|-----------------|-----------------|
|-----------------|-----------------|-----------------|
|-0-0-0-3-4-0-0-0-|-0-0-0-3-4-0-0-0-|-0-0-0-3-4-0-0-0-|


                                                     H.=H
    F5 F#5G5 F5      F#5G5    E5  F5    F#5Eb5D5
                                                    3/4
  PM                          PM
  E Q  Q  Q  E   +E  Q  E +E  E E E   E Q  Q  Q  E   W
|--------------|--------------------|--------------|------|
|--------------|--------------------|--------------|------|
|--------------|--------------------|--------------|------|
|--------------|--------------------|--------------|------|
|---3--4--5--3-|-(3)-4--5-(5)-2---3-|---4--1--0----|------|
|-0-3--4--5--3-|-(3)-4--5-(5)-2---3-|---4--1--0----|------|


 4/4
  W          +W           +W           +W           +W
|----------:------------:------------:------------:--------|
|----------:------------:------------:------------:--------|
|----------:------------:------------:------------:--------|
|----------:------------:------------:------------:--------|
|-0--------:-(0)--------:-(0)--------:-(0)--------:-(0)----|
|-0--------:-(0)--------:-(0)--------:-(0)--------:-(0)----|


          PM                                              ~~~~~~~~
  +Q   Q  Q  Q    +W           +W           +W            E. +S  e E H
|---------------:------------:------------:------------:------------------*|
|---------------:------------:------------:------------:------------------*|
|---------------:------------:------------:------------:------------------*|
|---------------:------------:------------:------------:------------------*|
|-(0)--x-----0--:-(0)--------:-(0)--------:-(0)--------:------------------*|
|-(0)--x--0--0--:-(0)--------:-(0)--------:-(0)--------:-/5--(5)s1--------*|



Duration Legend
---------------
W - whole; H - half; Q - quarter; E - 8th; S - 16th; T - 32nd; X - 64th; a - acciaccatura
+ - note tied to previous; . - note dotted; .. - note double dotted
Uncapitalized letters represent notes that are staccato (1/2 duration)
Irregular groupings are notated above the duration line
Duration letters will always appear directly above the note/fret number it represents the
duration for.  Duration letters with no fret number below them represent rests.  Multi-
bar rests are notated in the form Wxn, where n is the number of bars to rest for.  Low
melody durations appear below the staff

Tablature Legend
----------------
 h   - hammer-on
 p   - pull-off
 b   - bend
 pb  - pre-bend
 r   - bend release (if no number after the r, then release immediately)
 /\  - slide into or out of (from/to "nowhere")
 s   - legato slide
 S   - shift slide
 - natural harmonic
[n]  - artificial harmonic
n(n) - tapped harmonic
 ~   - vibrato
 tr  - trill
 T   - tap
 TP  - trem. picking
 PM  - palm muting
\n/  - tremolo bar dip; n = amount to dip
 \n  - tremolo bar down
 n/  - tremolo bar up
/n\  - tremolo bar inverted dip
 =   - hold bend; also acts as connecting device for hammers/pulls
 <> - volume swell (louder/softer)
 x   - on rhythm slash represents muted slash
 o   - on rhythm slash represents single note slash

Misc Legend
-----------
 |  - bar
||  - double bar
||o - repeat start
o|| - repeat end
*|  - double bar (ending)
 :  - bar (freetime)
 $  - Segno
 &  - Coda
Tempo markers -  = BPM(8/16=s8/s16), where s8 = swing 8ths, s16 = swing 16ths


            
            
Suggest correction
Creating personal tab
Creating personal tab
You can edit any tab online and save it as your Personal.

You can edit, replace or remove any tab part or add personal notes – all changes will be seen only by you.

Personal tabs can be accessed anytime from any device, even offline.
Learn more »
Give kudos to tab author, rate the tab!
1 2 3 4 5
comments
print report bad tab
guest
You may want to rate the tab now too:
select rating
Wanna post a correction for this tab? Suggest correction