Oops, an error
Loading. Please wait.

Madhouse bass

version 2
version 2

Whole song

Interactive

by Anthrax
15,201 views 3 this week
5 commentsread comments
1 2 3 4 5
x 9
add to favorites
×
Save as Personal and add changes to this tab that will be seen only by you. Learn more ›
×
You can save this tab as Personal to edit and correct it or add notes. All changes will be seen only by you. Learn more »
launch autoscroll
font size
0
reset
guitar tuner
backing track
0:00
0:00
edit
Autoscroll
slow
fast
+/-
esc
set tempo
stop
Author
Difficulty
Unregistered
---------------------------------------------------------------
Madhouse - Anthrax
-----------------------------------------------------------------------

Tabbed by: Alpha_Wolf

Email: Wolf_Dude67@MSN.COM


  These are the bass tabs for Madhouse... Don’t go crazy on me if they’re wrong; this is my first tab.




     Tuning: Standard (EADG) 



  
  Intro A
                                          

G|---------------------------------------------------------|
D|---------------------------------------------------------|
A|---------------------------------------------------------|
E|--0-0-0-0-0-0-0-0-0-0-0-0-0-0-0-0-0-0-0-0-0-0-0----------|
                                                    
  Intro B

                                Play this 4 times
G|-----------------------------------------------|
D|-----------------------------------------------|
A|---7---6--5--4---------------------------------|
E|-----7--6--5--4--0-0-0-0-0-0-0-0---------------|
                                                     



  
                                                     
  Verse A

                         Play this repeatedly
G|-------------------------------------------|
D|-------------------------------------------|
A|--2-2---2-2-2--2-2-2---2-------------------|
E|-------------------------------------------|
   “White coats to bind me...”

          
   

  Verse B - Verse Riff 1


G|------------------------------------------------------|
D|---------------------------3-2------------------------|
A|------------0-----------------------------------------|
E|---0-0-0-0-1-1-0--0-0-0-1-----------------------------|
   “Trapped in this nightmare...”



  
  Verse B - Verse Riff 2


G|-----------------------------------------------------|
D|----------------------------3------------------------|
A|------------0-------------2--------------------------|
E|---0-0-0-0-1-1-0--0-0-0-1----------------------------|
   “I wish I’d wake...”




  Verse B - Verse Riff 3


G|-----------------------------------------------------|
D|-----------------------------------------------------|
A|------------0--------------3-------------------------|
E|---0-0-0-0-1-1-0--0-0-0-1----4-----------------------|
   “...begins to shake...”


  Verse C

                                                 Play this 4 times
G|----------------------------------------------------------------|
D|----------------------------------------------------------------|
A|---0-0-0-0-0-0-0-0-0-0-0-0--3-2-1-------------------------------|
E|----------------------------------------------------------------|
   “And I don’t care...”   


  Chorus

                               ================>>Play this 3 times
G|----------------------------|-----------------------------------|
D|----------------------------|-----------------------------------|
A|---3-3-2-2-1--0-------------|-7---6--5--4-----------------------|
E|-----------------0-0--0-0-0-|---7--6--5--4--0-0--0-0-0----------|
   “It’s a madhouse...”



  Pre-solo

                                    Let this note ring out
G|--------------------------------------------------------|
D|--------------------------------------------------------|
A|--------------------------------------------------------|
E|---0----------------------------------------------------|
   “...I’m INSANE!”






  Guitar Solo

                    Play this throughout solo
G|-------------------------------------------|
D|-------------------------------------------|
A|--2-2---2-2-2--2-2-2---2-------------------|
E|-------------------------------------------|




  Outro

G|-----------------------------------------------|
D|-----------------------------------------------|
A|---7---6--5--4--7--6--5--4--7--6--5--4---------|
E|-----7--6--5--4--7--6--5--4--7--6--5--4--0-----|
  “...Mad, madhouse! Mad, mad, mad, madhouse!”
   

                                And that’s it.
   Order of song:
  “Intro A”
  “Intro B” 4 times
  “Verse A” Repeatedly
  “Verse B - Verse Riff 1”
  “Verse B - Verse Riff 2”
  “Verse B - Verse Riff 1”
  “Verse B - Verse Riff 3”
  “Verse B - Verse Riff 1”
  “Verse B - Verse Riff 2”
  “Verse B - Verse Riff 1”
  “Verse B - Verse Riff 3”
  “Verse C” 4 times
  “Chorus” Play second part 3 times
  “Verse A” Repeatedly
  “Verse B - Verse Riff 1”
  “Verse B - Verse Riff 2”
  “Verse B - Verse Riff 1”
  “Verse B - Verse Riff 3”
  “Verse B - Verse Riff 1”
  “Verse B - Verse Riff 2”
  “Verse B - Verse Riff 1”
  “Verse B - Verse Riff 3”
  “Verse C” 4 times
  “Chorus” Play second part 3 times
  “Pre-solo”
  “Guitar Solo” Play this throughout solo
  “Verse B - Verse Riff 1”
  “Verse B - Verse Riff 2”
  “Verse B - Verse Riff 1”
  “Verse B - Verse Riff 3”
  “Verse B - Verse Riff 1”
  “Verse B - Verse Riff 2”
  “Verse B - Verse Riff 1”
  “Verse B - Verse Riff 3”
  “Verse C” 4 times
  “Chorus” Play second part 3 times
  “Outro”

            
            
Suggest correction
Creating personal tab
Creating personal tab
You can edit any tab online and save it as your Personal.

You can edit, replace or remove any tab part or add personal notes – all changes will be seen only by you.

Personal tabs can be accessed anytime from any device, even offline.
Learn more »
comments
print report bad tab
5 comments total. Showing first comments.
0 reply
WhiteHelljumper 51 Aug 06, 2007 07:14 AM

Seems like it's right.

0 reply
chase_the_ace29 10 Aug 16, 2007 07:37 PM

i like it. pretty close.

0 reply
BassPlayerBoy 52 Sep 01, 2007 10:38 PM

almost there, so close....
ill put the thing up 100% for all u folks who are tired of looking for the right tab, my first one sucked, this one won't, pretty nie Wolfee

guest
Wanna post a correction for this tab? Suggest correction