Oops, an error
Loading. Please wait.

Poison My Eyes tab

version 2
version 2

Whole song

Interactive

by Anthrax
375 views 3 this week
no commentswrite comment
1 2 3 4 5
2 more votes to show rating
add to favorites
×
Save as Personal and add changes to this tab that will be seen only by you. Learn more ›
×
You can save this tab as Personal to edit and correct it or add notes. All changes will be seen only by you. Learn more »
launch autoscroll
font size
0
reset
how to read this tab
guitar tuner
edit
Autoscroll
slow
fast
+/-
esc
set tempo
stop
#----------------------------------PLEASE NOTE---------------------------------#
#This file is the author's own work and represents their interpretation of the #
#song. You may only use this file for private study, scholarship, or research. #
#------------------------------------------------------------------------------#

POISON MY EYES
As recorded by Anthrax
(From the 1993 Album LAST ACTION HERO)

Transcribed by Mike Sheehan
	

Words and Music by Charlie Benante, Scott Ian, John Bush and Frank Bello

E5open
0 2 2 x x x
	
F#5
2 4 4 x x x
	
G5
3 5 5 x x x
	
G#5
4 6 6 x x x

A5
5 7 7 x x x
	
B5VII
7 9 x x x x
	
B5
x 2 4 4 x x
	
C5
x 3 5 5 x x

C#5
x 4 6 6 x x
	
D5
x 5 7 7 x x
	
E5
x 7 9 9 x x
	
E5open(type 2)
0 2 2 4 0 0

Gtr I (Eb Ab Db Gb Bb Eb) - 'Scott Ian'
Gtr II (Eb Ab Db Gb Bb Eb) - 'Dan Spitz'
Gtr III (Eb Ab Db Gb Bb Eb) - 'Dan Spitz Lead'

 Intro
  Q=80
  B5                    D5         C#5        B5
 4/4
  Gtrs I, II
  W          W          W          W          W
|----------|----------|----------|----------|------|
|----------|----------|----------|----------|------|
|-4--------|-4--------|-7--------|-6--------|-4----|
|-4--------|-4--------|-7--------|-6--------|-4----|
|-2--------|-2--------|-5--------|-4--------|-2----|
|----------|----------|----------|----------|------|


             D5           G#5          G5      A5     B5
  W          H.      Q    H.      Q    H.      Q      H.      Q
|----------|------------|------------|------------||---------------|
|----------|------------|------------|------------||o--------------|
|-4--------|-7-------7--|------------|------------||--4-------4----|
|-4--------|-7-------7--|-6-------6--|-5-------7--||--4-------4----|
|-2--------|-5-------5--|-6-------6--|-5-------7--||o-2-------2----|
|----------|------------|-4-------4--|-3-------5--||---------------|


                           1.             2.
  D5           C#5          E5             G5      A5   F#5
  H.      Q    H.      Q    H.      Q      H.      Q    W
|------------|------------|-------------||------------|------||
|------------|------------|------------o||------------|------||
|-7-------7--|-6-------6--|-9-------9---||------------|------||
|-7-------7--|-6-------6--|-9-------9---||-5-------7--|-4----||
|-5-------5--|-4-------4--|-7-------7--o||-5-------7--|-4----||
|------------|------------|-------------||-3-------5--|-2----||


    B5
    Gtr I
    S  S S S S S S S S S S S S S S S
||-----------------------------------|
||o----------------------------------|
||-----------------------------------|
||-----------------------------------|
||o-2--2-0---2-2-0---2-2-0---2-2-0---|
||---------2-------2-------2-------2-|
|
|   Gtr II
|   H.                       Q
||-----------------------------------|
||o----------------------------------|
||--4------------------------4-------|
||--4------------------------4-------|
||o-2------------------------2-------|
||-----------------------------------|


  D5                                 C#5
  S  S S S S S S S S S S S S S S S   S  S S S S S S S S S S S S S S S
|----------------------------------|-------------------------------------|
|----------------------------------|-------------------------------------|
|----------------------------------|-------------------------------------|
|----------------------------------|-------------------------------------|
|-2--2-0---2-2-0---2-2-0---2-2-0---|-2--2-0---2-2-0---2-2-0---2-2-0------|
|--------2-------2-------2-------2-|--------2-------2-------2-------2----|
|
| H.                       Q         H.                       Q
|----------------------------------|-------------------------------------|
|----------------------------------|-------------------------------------|
|-7------------------------7-------|-6------------------------6----------|
|-7------------------------7-------|-6------------------------6----------|
|-5------------------------5-------|-4------------------------4----------|
|----------------------------------|-------------------------------------|


  1.                                  2.
  E5                                   G5                       A5
  S  S S S S S S S S S S S S S S S     S  S S S S S S S S S S S S S S S
|-----------------------------------||----------------------------------|
|----------------------------------o||----------------------------------|
|-----------------------------------||----------------------------------|
|-----------------------------------||----------------------------------|
|-2--2-0---2-2-0---2-2-0---2-2-0---o||-2--2-0---2-2-0---2-2-0---2-2-0---|
|--------2-------2-------2-------2--||--------2-------2-------2-------2-|
|
| H.                       Q           H.                       Q
|-----------------------------------||----------------------------------|
|----------------------------------o||----------------------------------|
|-9------------------------9--------||----------------------------------|
|-9------------------------9--------||-5------------------------7-------|
|-7------------------------7-------o||-5------------------------7-------|
|-----------------------------------||-3------------------------5-------|


  E5open
                           >
  W          +W           +W
|----------|------------|---------------|
|----------|------------|---------------|
|----------|------------|---------------|
|-2--------|-(2)--------|-(2)-----------|
|-2--------|-(2)--------|-(2)-----------|
|-0--------|-(0)--------|-(0)-----------|
|
|                                 ~~~
| W          +W           +H     +H
|----------|------------|---------------|
|----------|------------|---------------|
|----------|------------|---------------|
|-2--------|-(2)--------|-(2)----(2)----|
|-2--------|-(2)--------|-(2)----(2)----|
|-0--------|-(0)--------|-(0)----(0)----|


               Q=182
                  N.C.
   ~~~~~~~~~~~~~~~~~~~~~~~~~~~~~~~~~~~~~~~~~~~~~~~~~~~~~~~
  +W              +W           +W             +W
|--------------||------------|--------------|------------|
|--------------||------------|--------------|------------|
|--------------||------------|--------------|------------|
|-(2)----------||-(2)--------|-(2)----------|-(2)--------|
|--------------||------------|--------------|------------|
|--------------||------------|--------------|------------|
|
| +H..       E     W            H..       E    W
|--------------||------------|--------------|------------|
|--------------||------------|--------------|------------|
|--------------||------------|--------------|------------|
|-(2)----------||------------|--------------|------------|
|--------------||------------|--------------|------------|
|------------2s||==7---------|--7---------2s|==7---------|


 ~~~~~~~~~~~~~~~~~~~~~~~~~~~~~~~~~~
  +W             +W           +W
|--------------|------------|-----------------|
|--------------|------------|-----------------|
|--------------|------------|-----------------|
|-(2)----------|-(2)--------|-(2)-------------|
|--------------|------------|-----------------|
|--------------|------------|-----------------|
|
|  H..       E    W            H..       E
|--------------|------------|-----------------|
|--------------|------------|-----------------|
|--------------|------------|-----------------|
|--------------|------------|-----------------|
|--------------|------------|-----------------|
|--7---------2s|==7---------|--7---------2s===|


   ~~~~~~~~~~~~~~~~~
  +W           +H..       E     W
|------------|--------------||-----------|
|------------|--------------||o----------|
|------------|--------------||-----------|
|-(2)--------|-(2)----------||-----------|
|------------|--------------||o----------|
|------------|------------2s||==7--------|
|
|  W           +H..       E     W
|------------|--------------||-----------|
|------------|--------------||o----------|
|------------|--------------||-----------|
|------------|--------------||-----------|
|------------|--------------||o----------|
|--7---------|-(7)--------2s||==7--------|


 1.,2.,3.          4.
                                   B5VII
                                   PM----|
  +H     Q.   E  4x  H     Q.  E   E E E E Q  Q
|----------------||--------------|----------------||
|---------------o||--------------|----------------||
|----------------||--------------|----------------||
|----------------||--------------|----------------||
|---------------o||--------------|-9-9-9-9-9------||
|-(7)----8----2s=||=(7)----8p==7-|-7-7-7-7-7------||
|
|                                  PM----|
| +H     Q.   E  4x  H     Q.  E   E E E E Q  Q
|----------------||--------------|----------------||
|---------------o||--------------|----------------||
|----------------||--------------|----------------||
|----------------||--------------|----------------||
|---------------o||--------------|-9-9-9-9-9------||
|-(7)----8----2s=||=(7)----8p==7-|-7-7-7-7-7------||


   1st Verse
    Q=192
                                N.C.     B5VII                         E5open
    Q  +H.             +Q.      E H      Q  +H.             +H         H     3x
||-------------------|-----------------|------------------|------------------||
||o------------------|-----------------|------------------|-----------------o||
||-------------------|-----------------|------------------|------------------||
||-------------------|-----------------|------------------|------------2-----||
||o-9--(9)-----------|-(9)\------------|-9--(9)-----------|-(9)\-------2----o||
||--7--(7)-----------|-(7)\-----3s8----|-7--(7)-----------|-(7)\-------0-----||
|
|   Q   E  E E E E E    E   E E E H      Q   E  E E E E E    E   E E E H     3x
||-------------------|-----------------|------------------|------------------||
||o------------------|-----------------|------------------|-----------------o||
||-------------------|-----------------|------------------|------------------||
||-------------------|-----------------|------------------|------------2-----||
||o-9---x--x-x-x-x-x-|--x---x-x--------|-9---x--x-x-x-x-x-|--x---x-x-x-2----o||
||--7---x--x-x-x-x-x-|--x---x-x-3s8----|-7---x--x-x-x-x-x-|--x---x-x-x-0-----||


  B5VII                       N.C.     B5VII      G#5
  Q  +H.             +Q.      E H      W          W
|------------------|-----------------|----------|------||
|------------------|-----------------|----------|------||
|------------------|-----------------|----------|------||
|------------------|-----------------|-9--------|-6----||
|-9--(9)-----------|-(9)\------------|-9--------|-6----||
|-7--(7)-----------|-(7)\-----3s8----|-7--------|-4----||
|
| Q   E  E E E E E    E   E E E H      W          W
|------------------|-----------------|----------|------||
|------------------|-----------------|----------|------||
|------------------|-----------------|----------|------||
|------------------|-----------------|-9--------|-6----||
|-9---x--x-x-x-x-x-|--x---x-x--------|-9--------|-6----||
|-7---x--x-x-x-x-x-|--x---x-x-3s8----|-7--------|-4----||


    N.C.
    Gtrs I, II
    PM--|             PM--|             PM--|             PM--|
    E E E E E E E E   E E E E E E E E   E E E E E E E E   E E E E E E E E
||------------------|-----------------|-----------------|-----------------|
||o-----------------|-----------------|-----------------|-----------------|
||------------------|-----------------|-----------------|-----------------|
||------------0h2---|-----------0h2---|-----------0h2---|-----------0h2---|
||o-------0h2-------|-------0h2-------|-------0h2-------|-------0h2-------|
||--0-0-0-----------|-0-0-0-----------|-0-0-0-----------|-0-0-0-----------|


  PM--|             PM--|             PM--|             PM--|
  E E E E E E E E   E E E E E E E E   E E E E E E E E   E E E E E E E E
|-----------------|-----------------|-----------------|-------------------||
|-----------------|-----------------|-----------------|------------------o||
|-----------------|-----------------|-----------------|-------------------||
|-----------4h6---|-----------4h6---|-----------4h6---|-----------4h6-----||
|-------4h6-------|-------4h6-------|-------4h6-------|-------4h6--------o||
|-4-4-4-----------|-4-4-4-----------|-4-4-4-----------|-4-4-4-------------||


 Pre Chorus
  PM|   PM          PM|   PM          PM|   PM          PM|   PM
  E E E E E E E E   E E E E E E E E   E E E E E E E E   E E E E E E E E
|-----------------|-----------------|-----------------|------------------|
|-----------------|-----------------|-----------------|------------------|
|-----------------|-----------------|-----------------|------------------|
|-----------------|-----------------|-----------------|------------------|
|-----2---4---2h4-|-----2---4---2h4-|-----2---4---2h4-|-----2---4---2h4--|
|-0-0---0---------|-0-0---0---------|-0-0---0---------|-0-0---0----------|


  PM--|             PM--|             PM--|             PM--|
  E E E E E E E E   E E E E E E E E   E E E E E E E E   E E E E E E E E
|-----------------|-----------------|-----------------|------------------|
|-----------------|-----------------|-----------------|------------------|
|-----------------|-----------------|-----------------|------------------|
|-----------4h6---|-----------4h6---|-----------4h6---|-----------4h6----|
|-------4h6-------|-------4h6-------|-------4h6-------|-------4h6--------|
|-4-4-4-----------|-4-4-4-----------|-4-4-4-----------|-4-4-4------------|


  $
                                                                    F#5
  PM|   PM          PM|   PM          PM|   PM          PM|   PM
  E E E E E E E E   E E E E E E E E   E E E E E E E E   E E E E E E Q
|-----------------|-----------------|-----------------|------------------|
|-----------------|-----------------|-----------------|------------------|
|-----------------|-----------------|-----------------|------------------|
|-----------------|-----------------|-----------------|------------------|
|-----2---4---2h4-|-----2---4---2h4-|-----2---4---2h4-|-----4---2---4s===|
|-0-0---0---------|-0-0---0---------|-0-0---0---------|-0-0---0-0---2s===|


  G#5
  Gtr I
    PM----------------------------|
  E E E E E E E E   E E E E E E E E   E E E E E E E E   E E E E E E E E
|-----------------|-----------------|-----------------|------------------||
|-----------------|-----------------|-----------------|------------------||
|-----------------|-----------------|-----------------|------------------||
|-----------------|-----------------|-----------------|------------------||
|-6-6-6-6-6-6-6-6-|-6-6-6-6-6-6-6-6-|---2---2---2---2-|---2---2---2------||
|-4-4-4-4-4-4-4-4-|-4-4-4-4-4-4-4-4-|-4---4---4---4---|-4---4---4---4-0--||
|
| Gtr II
|   PM----------------------------------------------------------------|
| E E E E E E E E   E E E E E E E E   E E E E E E E E   E E E E E E E E
|-----------------|-----------------|-----------------|------------------||
|-----------------|-----------------|-----------------|------------------||
|-----------------|-----------------|-----------------|------------------||
|-----------------|-----------------|-----------------|------------------||
|-6-6-6-6-6-6-6-6-|-6-6-6-6-6-6-6-6-|-6-6-6-6-6-6-6-6-|-6-6-6-6-6-6-6-6--||
|-4-4-4-4-4-4-4-4-|-4-4-4-4-4-4-4-4-|-4-4-4-4-4-4-4-4-|-4-4-4-4-4-4-4-4--||


 Chorus
  N.C.
  Gtrs I, II
  E E Q  E E Q    E E Q  E E Q    E E Q  E E Q    E E Q  E E Q
|---------------|---------------|---------------|----------------|
|---------------|---------------|---------------|----------------|
|---------------|---------------|---------------|----------------|
|---------------|---------------|---------------|----------------|
|-2------2------|-2------2------|-2------2------|-2------2-------|
|---0------0----|---0------0----|---0------0----|---0------0-0---|


  G#5
  Gtr I
  PM------------------------------|
  E E E E E E E E   E E E E E E E E   E E E E E E E E   E E E E E E E E
|-----------------|-----------------|-----------------|------------------|
|-----------------|-----------------|-----------------|------------------|
|-----------------|-----------------|-----------------|------------------|
|-----------------|-----------------|-----------------|------------------|
|-6-6-6-6-6-6-6-6-|-6-6-6-6-6-6-6-6-|---2---2---2---2-|---2---2---2------|
|-4-4-4-4-4-4-4-4-|-4-4-4-4-4-4-4-4-|-4---4---4---4---|-4---4---4---4-0--|
|
| Gtr II
| PM------------------------------------------------------------------|
| E E E E E E E E   E E E E E E E E   E E E E E E E E   E E E E E E E E
|-----------------|-----------------|-----------------|------------------|
|-----------------|-----------------|-----------------|------------------|
|-----------------|-----------------|-----------------|------------------|
|-----------------|-----------------|-----------------|------------------|
|-6-6-6-6-6-6-6-6-|-6-6-6-6-6-6-6-6-|-6-6-6-6-6-6-6-6-|-6-6-6-6-6-6-6-6--|
|-4-4-4-4-4-4-4-4-|-4-4-4-4-4-4-4-4-|-4-4-4-4-4-4-4-4-|-4-4-4-4-4-4-4-4--|


  N.C.
  Gtrs I, II
  E E Q  E E Q    E E Q  E E Q    E E Q  E E Q    E E Q  E E Q
|---------------|---------------|---------------|----------------|
|---------------|---------------|---------------|----------------|
|---------------|---------------|---------------|----------------|
|---------------|---------------|---------------|----------------|
|-2------2------|-2------2------|-2------2------|-2------2-------|
|---0------0----|---0------0----|---0------0----|---0------0-0---|


  G#5                             G5  G#5
  PM------|   PM------|     PM|       PM------|   PM------|     PM|
  E E E E E E E E   E E E E E E E E   E E E E E E E E   E E E E E E Q
|-----------------|-----------------|-----------------|-----------------|
|-----------------|-----------------|-----------------|-----------------|
|-----------------|-----------------|-----------------|-----------------|
|-----------------|-----------------|-----------------|-----------------|
|-6-6-6-6-6---6-6-|-6-6-6---6-6-6s5-|-6-6-6-6-6---6-6-|-6-6-6---6-6-6---|
|-4-4-4-4-4---4-4-|-4-4-4---4-4-4s3-|-4-4-4-4-4---4-4-|-4-4-4---4-4-4---|


                                                             To Coda
  E5open
  PM----|     PM------|     PM|       PM----|     PM------|     PM|
  E E E E E E E E   E E E E E E E E   E E E E E E E E   E E E E E E Q
|-----------------|-----------------|-----------------|-----------------||
|-----------------|-----------------|-----------------|-----------------||
|-----------------|-----------------|-----------------|-----------------||
|-----------------|-----------------|-----------------|-----------------||
|-2-2-2-2-2---2-2-|-2-2-2---2-2-2---|-2-2-2-2-2---2-2-|-2-2-2---2-2-2---||
|-0-0-0-0-0---0-0-|-0-0-0---0-0-0---|-0-0-0-0-0---0-0-|-0-0-0---0-0-0---||


   2nd Verse
    B5VII                       N.C.     B5VII                         E5open
    Gtr I
    Q  +H.             +Q.      E H      Q  +H.             +H         H     3x
||-------------------|-----------------|------------------|------------------||
||o------------------|-----------------|------------------|-----------------o||
||-------------------|-----------------|------------------|------------------||
||-------------------|-----------------|------------------|------------2-----||
||o-9--(9)-----------|-(9)\------------|-9--(9)-----------|-(9)\-------2----o||
||--7--(7)-----------|-(7)\-----3s8----|-7--(7)-----------|-(7)\-------0-----||
|
|   Gtr II
|   Q   E  E E E E E    E   E E E H      Q   E  E E E E E    E   E E E H     3x
||-------------------|-----------------|------------------|------------------||
||o------------------|-----------------|------------------|-----------------o||
||-------------------|-----------------|------------------|------------------||
||-------------------|-----------------|------------------|------------2-----||
||o-9---x--x-x-x-x-x-|--x---x-x--------|-9---x--x-x-x-x-x-|--x---x-x-x-2----o||
||--7---x--x-x-x-x-x-|--x---x-x-3s8----|-7---x--x-x-x-x-x-|--x---x-x-x-0-----||


  B5VII                       N.C.     B5VII      G#5
  Q  +H.             +Q.      E H      W          W
|------------------|-----------------|----------|------||
|------------------|-----------------|----------|------||
|------------------|-----------------|----------|------||
|------------------|-----------------|-9--------|-6----||
|-9--(9)-----------|-(9)\------------|-9--------|-6----||
|-7--(7)-----------|-(7)\-----3s8----|-7--------|-4----||
|
| Q   E  E E E E E    E   E E E H      W          W
|------------------|-----------------|----------|------||
|------------------|-----------------|----------|------||
|------------------|-----------------|----------|------||
|------------------|-----------------|-9--------|-6----||
|-9---x--x-x-x-x-x-|--x---x-x--------|-9--------|-6----||
|-7---x--x-x-x-x-x-|--x---x-x-3s8----|-7--------|-4----||


    N.C.
    Gtrs I, II
    PM--|             PM--|             PM--|             PM--|
    E E E E E E E E   E E E E E E E E   E E E E E E E E   E E E E E E E E
||------------------|-----------------|-----------------|-----------------|
||o-----------------|-----------------|-----------------|-----------------|
||------------------|-----------------|-----------------|-----------------|
||------------0h2---|-----------0h2---|-----------0h2---|-----------0h2---|
||o-------0h2-------|-------0h2-------|-------0h2-------|-------0h2-------|
||--0-0-0-----------|-0-0-0-----------|-0-0-0-----------|-0-0-0-----------|


  PM--|             PM--|             PM--|             PM--|
  E E E E E E E E   E E E E E E E E   E E E E E E E E   E E E E E E E E
|-----------------|-----------------|-----------------|-------------------||
|-----------------|-----------------|-----------------|------------------o||
|-----------------|-----------------|-----------------|-------------------||
|-----------4h6---|-----------4h6---|-----------4h6---|-----------4h6-----||
|-------4h6-------|-------4h6-------|-------4h6-------|-------4h6--------o||
|-4-4-4-----------|-4-4-4-----------|-4-4-4-----------|-4-4-4-------------||


 Pre Chorus
  PM|   PM          PM|   PM          PM|   PM          PM|   PM
  E E E E E E E E   E E E E E E E E   E E E E E E E E   E E E E E E E E
|-----------------|-----------------|-----------------|------------------|
|-----------------|-----------------|-----------------|------------------|
|-----------------|-----------------|-----------------|------------------|
|-----------------|-----------------|-----------------|------------------|
|-----2---4---2h4-|-----2---4---2h4-|-----2---4---2h4-|-----2---4---2h4--|
|-0-0---0---------|-0-0---0---------|-0-0---0---------|-0-0---0----------|


                                                          D.S. al Coda
  PM--|             PM--|                                             PM
  E E E E E E E E   E E E E E E E E   E E E E E E E E   E E E E E E E E
|-----------------|-----------------|-----------------|------------------|
|-----------------|-----------------|-----------------|------------------|
|-----------------|-----------------|-----------------|------------------|
|-----------4h6---|-----------4h6---|---4h6-----4h6---|---4h6-----4h6----|
|-------4h6-------|-------4h6-----4h|=6-----4h6-----4h|=6-----4h6--------|
|-4-4-4-----------|-4-4-4-----------|-----------------|---------------0--|


 Guitar Solo
  &
     B5                          C5   D5
  Gtrs I, II
                            PM---|
                            |--3--|
      W           +Q.    E  Q  Q  Q    W                +H     E Q  E
|--------------|--------------------|----------------|-----------------|
|--------------|--------------------|----------------|-----------------|
|-----4--------|--(4)---------------|--7-------------|--(7)----7-7--7--|
|-----4--------|--(4)-------4--4--5-|--7-------------|--(7)----7-7--7--|
|-----2--------|--(2)----0--2--2--3-|--5-------------|--(5)----5-5--5--|
|--------------|--------------------|----------------|-----------------|
|
| Gtr III
|     ~~~~~~~~~~~~~~~~                 ~~~         ~~~~~~~~~
|                           |--3--|
|  a  W           +Q.    E  Q  Q  Q    H.       E  E    +W
|--------------|--------------------|----------------|-----------------|
|-10h12--------|-(12)---12-12-12-12-|-15-------14s10-|-(10)------------|
|--------------|--------------------|----------------|-----------------|
|--------------|--------------------|----------------|-----------------|
|--------------|--------------------|----------------|-----------------|
|--------------|--------------------|----------------|-----------------|


       C#5  D5   C#5           D5   C#5   D5C#5
    E  E Q    E  E Q           E    E Q   E E Q
|----------------------------|-------------------|
|----------------------------|-------------------|
|---7s=6------7s=6-----------|-7s===6-----7s6----|
|---7s=6------7s=6-----------|-7s===6-----7s6----|
|---5s=4------5s=4-----------|-5s===4-----5s4----|
|----------------------------|-------------------|
|
|   ~~~~                                  ~~
|   H         Q.      +E       E    E E E H
|----------------------------|-------------------|
|-[12]------[10]-----(10)b12-|-------------------|
|----------------------------|-9b11---7-7--------|
|----------------------------|------------9------|
|----------------------------|-------------------|
|----------------------------|-------------------|


  C#C5    C#C5         C#5C5      C#5  C5
  E E Q   E E Q         E E   Q     E    E   Q
|-----------------|-----------------------------|
|-----------------|-----------------------------|
|-6s5-----6s5-----|-----6s5---------6s===5------|
|-6s5-----6s5-----|-----6s5---------6s===5------|
|-4s3-----4s3-----|-----4s3---------4s===3------|
|-----------------|-----------------------------|
|
|                             ~~~~~~~~~
| E E E E E E E E    a  Q    +Q    +E   +Q.
|-----------------|-----------------------------|
|-----------------|-10s12---(12)--(12)-(12)\----|
|---------7-------|-----------------------------|
|-7h9p7h9---9p7---|-----------------------------|
|---------------9-|-----------------------------|
|-----------------|-----------------------------|


  B5                                      C5
                                PM--------|
                                |----3----|
  W                  +Q.      E Q   Q     Q
|------------------|----------------------------|
|------------------|----------------------------|
|-4----------------|-(4)------------------------|
|-4----------------|-(4)--------4---4-----5-----|
|-2----------------|-(2)------0-2---2-----3-----|
|------------------|----------------------------|
|
| |-3-|               |-3-|
| E E E E E E E Q     E E E E E E E   E     +E
|------------------|----------------------------|
|------------------|----------------------------|
|------------------|------------------4b6---(4)-|
|-2h4p2h4-2-----4--|--2h4p2h4-2-----------------|
|-----------5-2----|------------5-2-------------|
|------------------|----------------------------|


  D5
  W                   +H          E  Q   E
|-------------------|-----------------------|
|-------------------|-----------------------|
|-7-----------------|-(7)---------7--7---7--|
|-7-----------------|-(7)---------7--7---7--|
|-5-----------------|-(5)---------5--5---5--|
|-------------------|-----------------------|
|
|                                    ~~~
| |-3-|
| E E E E E E E E E    E  E E   E E  Q.
|-------------------|-----------------------|
|-------------------|-----------------------|
|-----------------4-|--4--------------------|
|-2h4p2h4-2-4-6-7---|-----4-7b8-4---[4]-----|
|-------------------|-------------7---------|
|-------------------|-----------------------|


  D5C#5      D5C#5     D5C#5           D5  C#5
  E E    Q   E E Q     E E Q            E  E Q
|--------------------|---------------------------|
|--------------------|---------------------------|
|-7s6--------7s6-----|-7s6--------------7s=6-----|
|-7s6--------7s6-----|-7s6--------------7s=6-----|
|-5s4--------5s4-----|-5s4--------------5s=4-----|
|--------------------|---------------------------|
|
| E E    E E E E E E   E E E S     +S  +E  E E E
|--------------------|---------------------------|
|--------------------|---------------------------|
|---9b11---9---6-----|---------------------------|
|------------------9-|---7---9pb10r(9)-(9)-7---9-|
|--------------------|-----------------------9---|
|--------------------|---------------------------|


  C#5 C5      C#C5      C#C5   C#5C5
   E  E   Q   E E Q     E E Q  E  E  Q
|---------------------|-------------------|
|---------------------|-------------------|
|--6s=5-------6s5-----|-6s5----6s=5-------|
|--6s=5-------6s5-----|-6s5----6s=5-------|
|--4s=3-------4s3-----|-4s3----4s=3-------|
|---------------------|-------------------|
|
|  E  E   E E E E E E   H      Q     E  E
|---------------------|-------------------|
|---------------------|-------------14-17-|
|---------------------|-------------------|
|-[7]-7b8-------------|-------------------|
|---------9-9-7-5-----|-------------------|
|-----------------7-5-|-7------7/---------|


     B5                                       C5
                                      PM------|
                                      |---3---|
      W                  +Q.      E   Q  Q    Q
|-------------------|------------------------------|
|-------------------|------------------------------|
|-----4-------------|----(4)-----------------------|
|-----4-------------|----(4)----------4--4----5----|
|-----2-------------|----(2)------0---2--2----3----|
|-------------------|------------------------------|
|
|     ~~~                     ~~~~~~~~~~~
|  a  H.       E  E    a  E   Q.     +Q     E    E
|-------------------|------------------------------|
|-17s19-------14-17-|-17s19--14-----(14)---14---17-|
|-------------------|------------------------------|
|-------------------|------------------------------|
|-------------------|------------------------------|
|-------------------|------------------------------|


     D5
      W                       +H          E  Q         E
|------------------------|-----------------------------------|
|------------------------|-----------------------------------|
|-----7------------------|----(7)---------7--7---------7-----|
|-----7------------------|----(7)---------7--7---------7-----|
|-----5------------------|----(5)---------5--5---------5-----|
|------------------------|-----------------------------------|
|
|     ~~~~~~~~~~
|                                              |----3-----|
|  a  H     +E   E  E  E    a  E   Q.    +Q    E  E       E
|------------------------|-------------------------------14--|
|-17s19----(19)-19-14-17-|-17s19-----------------17b19-------|
|------------------------|--------16----(16)s==7-------------|
|------------------------|-----------------------------------|
|------------------------|-----------------------------------|
|------------------------|-----------------------------------|


  D5    C#5           D5    C#5             D5    C#5           D5    C#5
   E    E     Q        E    E     Q          E    E     Q        E     E     Q
|-----------------------------------------|--------------------------------------|
|-----------------------------------------|--------------------------------------|
|--7s===6--------------7s===6-------------|--7s===6--------------7s====6---------|
|--7s===6--------------7s===6-------------|--7s===6--------------7s====6---------|
|--5s===4--------------5s===4-------------|--5s===4--------------5s====4---------|
|-----------------------------------------|--------------------------------------|
|
|  |---3---|  |--3--|  |---3---|  |--3--|    |---3---|  |--3--|
|  E  E    E  E  E  E  E  E    E  E  E  E    E  E    E  E  E  E  S  S  S  S  E E
|-17p14------14---------------------------|--------------------------------------|
|---------17----17p14-17p14------14-------|-17p14------14------------------------|
|-----------------------------16----16p14-|---------16----16-14-16-14-14-14------|
|-----------------------------------------|---------------------------------16---|
|-----------------------------------------|--------------------------------------|
|-----------------------------------------|--------------------------------------|


     C#5C5                C#5       C5           C#5     C5           C#5C5
      E E           Q       E         E    Q      E      E      Q      E E   Q
|----------------------------------------------|----------------------------------|
|----------------------------------------------|----------------------------------|
|-----6s5-------------------6s========5--------|--6s=====5-------------6s5--------|
|-----6s5-------------------6s========5--------|--6s=====5-------------6s5--------|
|-----4s3-------------------4s========3--------|--4s=====3-------------4s3--------|
|----------------------------------------------|----------------------------------|
|
|           ~~~~~~~~~~~                    ~~~~                        ~~~
|  a  E S   S      +E   E   E    a    E    Q      E.        S  +E   E  Q    +Q
|----------------------------------------------|----------------------------------|
|-12s16----------------------------------------|----------------------------------|
|---------[14]b16-(14)-------------------------|----------------------------------|
|----------------------16-[14]-[16]s[17]-[14]--|-12b12.5--------------------------|
|----------------------------------------------|-----------14-(14)-12-14---(14)\--|
|----------------------------------------------|----------------------------------|


  B5                                        C5
                                   PM-------|
                                   |---3----|
   W                 +Q.       E   Q    Q   Q
|------------------|----------------------------|
|------------------|----------------------------|
|--4---------------|-(4)------------------------|
|--4---------------|-(4)-----------4----4---5---|
|--2---------------|-(2)-------0---2----2---3---|
|------------------|----------------------------|
|
|      ~
|           |-3--|        |--3---| |-3--| |-3-|
|  E E H    E  E E    Q   E  E   E E E  E E E E
|------------------|----------------------------|
|-----------7h12p7p|==0---7h12p==7p0-7h12p7p0---|
|------------------|----------------------------|
|------9-----------|----------------------------|
|-/9---------------|----------------------------|
|------------------|----------------------------|


  D5
  W                    +H          E   Q        E
|--------------------|-----------------------------|
|--------------------|-----------------------------|
|-7------------------|-(7)---------7---7--------7--|
|-7------------------|-(7)---------7---7--------7--|
|-5------------------|-(5)---------5---5--------5--|
|--------------------|-----------------------------|
|
| |-3--|      |-3--|        |-3--| |--3---|
| E  E E H    E  E E    Q   E  E E E E    E   E E
|--------------------|-----------------------------|
|-7h12p7p0----7h12p7p|==0---7h12p7p0-7h==12-/12----|
|--------------------|-----------------------------|
|--------------------|-----------------------------|
|--------------------|-----------------------------|
|--------------------|-----------------------------|


  D5 C#5         D5    C#5               D5 C#5            D5    C#5
   E  E  Q        E    E    Q             E  E     Q        E     E    Q
|--------------------------------------|------------------------------------------|
|--------------------------------------|------------------------------------------|
|--7s=6-----------7s===6---------------|--7s=6--------------7s====6---------------|
|--7s=6-----------7s===6---------------|--7s=6--------------7s====6---------------|
|--5s=4-----------5s===4---------------|--5s=4--------------5s====4---------------|
|--------------------------------------|------------------------------------------|
|
|        |--3--|  |--3---|
|  E  E  E  E  E  E  E   E  S  S  S  S    E  S  S  E  S  S  S  S  S  S S  T  T  E
|--------------------------------------|------------------------------------------|
|-19p14-19-19-19p14h19-----19p14h19p14-|-19-14-14-14-19p14-14h19-19p14---15h17h19p|
|--------------------------------------|------------------------------------------|
|--------------------------------------|------------------------------------------|
|--------------------------------------|------------------------------------------|
|--------------------------------------|------------------------------------------|


  C#5C5             C#5   C5                  C#5   C5   C#5 C5
   E  E  Q           E     E  Q                E    E Q   E  E Q
|-------------------------------------------|-----------------------||
|-------------------------------------------|-----------------------||
|--6s=5--------------6s====5----------------|--6s===5-----6s=5------||
|--6s=5--------------6s====5----------------|--6s===5-----6s=5------||
|--4s=3--------------4s====3----------------|--4s===3-----4s=3------||
|-------------------------------------------|-----------------------||
|
|                                              ~~~~~
|  E  E  S  S  S  S  S  S  E  S  T  S  S  T    H          H
|-------------------------------------------|-14---------14\--------||
|-14----19p14----14h19p14----19-------15-17-|-17b19-----------------||
|----15-------15----------15----14-14-------|-----------------------||
|-------------------------------------------|-----------------------||
|-------------------------------------------|-----------------------||
|-------------------------------------------|-----------------------||


   Outro
    E5G5   E5G5     E5G5   E5G5G#G5  E5G5   E5G5     E5G5   E5G5G#G5
    Gtrs I, II
    E E Q  E E Q    E E Q  E E E E   E E Q  E E Q    E E Q  E E E E  5x
||----------------|----------------|---------------|-----------------||
||o---------------|----------------|---------------|----------------o||
||----------------|----------------|---------------|-----------------||
||--2h5----2h5----|-2h5----2h5-6s5-|-2h5----2h5----|-2h5----2h5-6s5--||
||o-2h5----2h5----|-2h5----2h5-6s5-|-2h5----2h5----|-2h5----2h5-6s5-o||
||--0h3----0h3----|-0h3----0h3-4s3-|-0h3----0h3----|-0h3----0h3-4s3--||


                                     H.=H
  E5G5   E5G5     E5G5   E5G5G#G5    E5G5   E5G5     E5G5   E5G5G#G5
  E E Q  E E Q    E E Q  E E E E     E E Q  E E Q    E E Q  E E E E   6x
|---------------|----------------||----------------|------------------||
|---------------|----------------||o---------------|-----------------o||
|---------------|----------------||----------------|------------------||
|-2h5----2h5----|-2h5----2h5-6s5-||--2h5----2h5----|-2h5----2h5-6s5---||
|-2h5----2h5----|-2h5----2h5-6s5-||o-2h5----2h5----|-2h5----2h5-6s5--o||
|-0h3----0h3----|-0h3----0h3-4s3-||--0h3----0h3----|-0h3----0h3-4s3---||


  Q=86
  E5open                              G5         F#5       E5open
            |-3-|             |-3-|                        |-3-|
  H..       S S S   H..       S S S   W          H..       S S S
|-----------------|-----------------|----------|-----------------|
|-----------------|-----------------|----------|-----------------|
|-----------------|-----------------|----------|-----------------|
|-2---------2-2-2-|-2---------2-2-2-|-5--------|-4---------2-2-2-|
|-2---------2-2-2-|-2---------2-2-2-|-5--------|-4---------2-2-2-|
|-0---------0-0-0-|-0---------0-0-0-|-3--------|-2---------0-0-0-|


            E5open(type 2)    E5open
            |-3-|             |-3-|
  H..       S S S   H..       S S S
|-----------0-0-0-|-0---------------|
|-----------0-0-0-|-0---------------|
|-----------4-4-4-|-4---------------|
|-2---------2-2-2-|-2---------2-2-2-|
|-2---------2-2-2-|-2---------2-2-2-|
|-0---------0-0-0-|-0---------0-0-2-|


  G5           F#5          A5
  H.      Q    H.      Q    H.      S S E
|------------|------------|----------------||
|------------|------------|----------------||
|------------|------------|----------------||
|-5-------5--|-4-------4--|-7-------7-7-7--||
|-5-------5--|-4-------4--|-7-------7-7-7--||
|-3-------3--|-2-------2--|-5-------5-5-5--||


    E5open
    Gtr I
    S  S S S S S S S S S S S S S S S
||-----------------------------------|
||o----------------------------------|
||-----------------------------------|
||-----------------------------------|
||o-2--2-0---2-2-0---2-2-0---2-2-0---|
||---------2-------2-------2-------2-|
|
|   Gtr II
|   H.                       Q
||-----------------------------------|
||o----------------------------------|
||-----------------------------------|
||--2------------------------2-------|
||o-2------------------------2-------|
||--0------------------------0-------|


  G5                                 F#5
  S  S S S S S S S S S S S S S S S   S  S S S S S S S S S S S S S S S
|----------------------------------|-------------------------------------|
|----------------------------------|-------------------------------------|
|----------------------------------|-------------------------------------|
|----------------------------------|-------------------------------------|
|-2--2-0---2-2-0---2-2-0---2-2-0---|-2--2-0---2-2-0---2-2-0---2-2-0------|
|--------2-------2-------2-------2-|--------2-------2-------2-------2----|
|
| H.                       Q         H.                       Q
|----------------------------------|-------------------------------------|
|----------------------------------|-------------------------------------|
|----------------------------------|-------------------------------------|
|-5------------------------5-------|-4------------------------4----------|
|-5------------------------5-------|-4------------------------4----------|
|-3------------------------3-------|-2------------------------2----------|


  1.                                  2.
  A5                                   C5
  S  S S S S S S S S S S S S S S S     W          +W
|-----------------------------------||----------|--------*|
|----------------------------------o||----------|--------*|
|-----------------------------------||-5--------|-(5)----*|
|-----------------------------------||-5--------|-(5)----*|
|-2--2-0---2-2-0---2-2-0---2-2-0---o||-3--------|-(3)----*|
|--------2-------2-------2-------2--||----------|--------*|
|
| H.                       Q           W          +W
|-----------------------------------||----------|--------*|
|----------------------------------o||----------|--------*|
|-----------------------------------||-5--------|-(5)----*|
|-7------------------------7--------||-5--------|-(5)----*|
|-7------------------------7-------o||-3--------|-(3)----*|
|-5------------------------5--------||----------|--------*|



Duration Legend
---------------
W - whole; H - half; Q - quarter; E - 8th; S - 16th; T - 32nd; X - 64th; a - acciaccatura
+ - note tied to previous; . - note dotted; .. - note double dotted
Uncapitalized letters represent notes that are staccato (1/2 duration)
Irregular groupings are notated above the duration line
Duration letters will always appear directly above the note/fret number it represents the
duration for.  Duration letters with no fret number below them represent rests.  Multi-
bar rests are notated in the form Wxn, where n is the number of bars to rest for.  Low
melody durations appear below the staff

Tablature Legend
----------------
 h   - hammer-on
 p   - pull-off
 b   - bend
 pb  - pre-bend
 r   - bend release (if no number after the r, then release immediately)
 /\  - slide into or out of (from/to "nowhere")
 s   - legato slide
 S   - shift slide
 - natural harmonic
[n]  - artificial harmonic
n(n) - tapped harmonic
 ~   - vibrato
 tr  - trill
 T   - tap
 TP  - trem. picking
 PM  - palm muting
\n/  - tremolo bar dip; n = amount to dip
 \n  - tremolo bar down
 n/  - tremolo bar up
/n\  - tremolo bar inverted dip
 =   - hold bend; also acts as connecting device for hammers/pulls
 <> - volume swell (louder/softer)
 x   - on rhythm slash represents muted slash
 o   - on rhythm slash represents single note slash

Misc Legend
-----------
 |  - bar
||  - double bar
||o - repeat start
o|| - repeat end
*|  - double bar (ending)
 :  - bar (freetime)
 $  - Segno
 &  - Coda
Tempo markers -  = BPM(8/16=s8/s16), where s8 = swing 8ths, s16 = swing 16ths


            
            
Suggest correction
Creating personal tab
Creating personal tab
You can edit any tab online and save it as your Personal.

You can edit, replace or remove any tab part or add personal notes – all changes will be seen only by you.

Personal tabs can be accessed anytime from any device, even offline.
Learn more »
Give kudos to tab author, rate the tab!
1 2 3 4 5
comments
print report bad tab
guest
You may want to rate the tab now too:
select rating
Wanna post a correction for this tab? Suggest correction