Oops, an error
Loading. Please wait.

Startin Up A Posse tab

version 2
version 2

Whole song

Interactive

by Anthrax
325 views 1 this week
no commentswrite comment
1 2 3 4 5
3 more votes to show rating
add to favorites
×
Save as Personal and add changes to this tab that will be seen only by you. Learn more ›
×
You can save this tab as Personal to edit and correct it or add notes. All changes will be seen only by you. Learn more »
launch autoscroll
font size
0
reset
how to read this tab
guitar tuner
edit
Autoscroll
slow
fast
+/-
esc
set tempo
stop
#----------------------------------PLEASE NOTE---------------------------------#
#This file is the author's own work and represents their interpretation of the #
#song. You may only use this file for private study, scholarship, or research. #
#------------------------------------------------------------------------------#

STARTIN' UP A POSSE
As recorded by Anthrax
(From the 1991 EP ATTACK OF THE KILLER B'S)

Transcribed by Mike Sheehan
        

Words and Music by Anthrax

Gtr I (E A D G B E) - 'Scott Ian'
Gtr II (E A D G B E) - 'Synth Arr. for Gtr'
Gtr III (E A D G B E) - 'Dan Spitz'
Gtr IV (E A D G B E) - 'Scott Ian'

 Intro
       Q=141(8=s8)
       N.C.               C            G       N.C.
 4/4
       Gtr I
  H    H      H    H       Q   q       Q  q     q   q       q  q
|-----------|-----------|--------------------|--------------------|
|-----------|-----------|------1----------0--|--------------------|
|-----------|-----------|------0----------0--|--------------------|
|-----------|-----------|--------------------|--------------------|
|-----------|-0----2----|--3-----------2-----|--3-----------0--2--|
|------3----|-----------|--------------3-----|------3-------------|
|
|      Gtr II
| W           W            q   E     E H        q   E     E H
|-----------|-----------|-----------15-------|-----------15-------|
|-----------|-----------|-13--15b17----------|-13--15b17----------|
|-----------|-----------|--------------------|--------------------|
|-----------|-----------|--------------------|--------------------|
|-----------|-----------|--------------------|--------------------|
|-----------|-----------|--------------------|--------------------|


  C            G       N.C.
   Q   q       Q  q     q   q       q  q
|--------------------|--------------------|
|------1----------0--|--------------------|
|------0----------0--|--------------------|
|--------------------|--------------------|
|--3-----------2-----|--3-----------0--2--|
|--------------3-----|------3-------------|
|
|  q   E     E H        q   E     E H
|-----------15-------|-----------15-------|
|-13--15b17----------|-13--15b17----------|
|--------------------|--------------------|
|--------------------|--------------------|
|--------------------|--------------------|
|--------------------|--------------------|


  C            G       N.C.
   Q   q       Q  q     q   q       q  q
|--------------------|--------------------|
|------1----------0--|--------------------|
|------0----------0--|--------------------|
|--------------------|--------------------|
|--3-----------2-----|--3-----------0--2--|
|--------------3-----|------3-------------|
|
|  q   E     E H        q   E     E H
|-----------15-------|-----------15-------|
|-13--15b17----------|-13--15b17----------|
|--------------------|--------------------|
|--------------------|--------------------|
|--------------------|--------------------|
|--------------------|--------------------|


  C            G
  Gtr I
   Q   q       Q  q     H      H        H       H
|--------------------|---------------|----------------||
|------1----------0--|---------------|----------------||
|------0----------0--|---------------|----------------||
|--------------------|---------------|----------------||
|--3-----------2-----|---------------|--0-------2-----||
|--------------3-----|---------3-----|----------------||
|
| Gtr II
|  q   E     E H        q  Q   q  Q     q   Q   q  Q
|-----------15-------|---------------|----------------||
|-13--15b17----------|-13------------|---------12-----||
|--------------------|--------12-----|-14-------------||
|--------------------|---------------|----------------||
|--------------------|---------------|----------------||
|--------------------|---------------|----------------||
|
| Gtr III
|                       ~~~~~~~~~~~~~~~~~~~
|  W                    W              +W
|--------------------|---------------|----------------||
|--------------------|--1------------|-(1)------------||
|--------------------|--2------------|-(2)------------||
|--------------------|--0------------|-(0)------------||
|--------------------|--3------------|-(3)------------||
|--------------------|---------------|----------------||


 1st Verse
  C            G       N.C.          C     G       N.C.
   Q   q       Q  q    q  q  q  q    Q  q  Q  q    q  q  q  q
|--------------------|-------------|-------------|---------------|
|------1----------0--|-------------|----1-----0--|---------------|
|------0----------0--|-------------|----0-----0--|---------------|
|--------------------|-------------|-------------|---------------|
|--3-----------2-----|-3-----0--2--|-3-----2-----|-3-----0--2----|
|--------------3-----|----3--------|-------3-----|----3----------|
|
|  q   E     E H       W             W             H     Q  E  E
|-----------15-------|-------------|-------------|---------------|
|-13--15b17----------|-------------|-------------|------------13-|
|--------------------|-------------|-------------|---------------|
|--------------------|-------------|-------------|---------------|
|--------------------|-------------|-------------|---------------|
|--------------------|-------------|-------------|---------------|


  C               G         N.C.                  C     G       N.C.
    Q         q   Q  q        q        q  q  q    Q  q  Q  q    q  Q  Q  Q
|-------------------------|---------------------|-------------|-------------|
|-------------1------0----|---------------------|----1-----0--|-------------|
|-------------0------0----|---------------------|----0-----0--|-------------|
|-------------------------|---------------------|-------------|-------------|
|---3-------------2-------|---3-----------0--2--|-3-----2-----|-3--3--2--0--|
|-----------------3-------|------------3--------|-------3-----|-------------|
|
|  +E   E     E E Q  E  E    +E   E    Q  H       W             W
|------------15-----------|---------------------|-------------|-------------|
|-(13)-15b17-----------13-|-(13)-15b17----------|-------------|-------------|
|-------------------------|---------------------|-------------|-------------|
|-------------------------|---------------------|-------------|-------------|
|-------------------------|---------------------|-------------|-------------|
|-------------------------|---------------------|-------------|-------------|


  $
  G                  N.C.       C     G       N.C.
  Gtr I
  Q  Q  Q  Q    +Q   q  q  q    Q  q  Q  q    q  q  q  q
|-------------|---------------|-------------|-------------|
|-------------|---------------|----1-----0--|-------------|
|----0-----0--|-(0)-----------|----0-----0--|-------------|
|----0-----0--|-(0)-----------|-------------|-------------|
|----2-----2--|-(2)-----0--2--|-3-----2-----|-3-----0--2--|
|-3-----3-----|------3--------|-------3-----|----3--------|


  C     G       N.C.          C     G       N.C.
  Q  q  Q  q    q  q  q  q    Q  q  Q  q    q  q  q  q
|-------------|-------------|-------------|-------------|
|----1-----0--|-------------|----1-----0--|-------------|
|----0-----0--|-------------|----0-----0--|-------------|
|-------------|-------------|-------------|-------------|
|-3-----2-----|-3-----0--2--|-3-----2-----|-3-----0--2--|
|-------3-----|----3--------|-------3-----|----3--------|


  C     G       N.C.          C     G       N.C.
  Q  q  Q  q    q  q  q  q    Q  q  Q  q    q  Q  Q  Q
|-------------|-------------|-------------|-------------|
|----1-----0--|-------------|----1-----0--|-------------|
|----0-----0--|-------------|----0-----0--|-------------|
|-------------|-------------|-------------|-------------|
|-3-----2-----|-3-----0--2--|-3-----2-----|-3--3--2--0--|
|-------3-----|----3--------|-------3-----|-------------|


  G                  N.C.       C
  Q  Q  Q  Q    +Q   q  q  q    W          +W
|-------------|---------------|----------|--------||
|-------------|---------------|-1--------|-(1)----||
|----0-----0--|-(0)-----------|-0--------|-(0)----||
|----0-----0--|-(0)-----------|-2--------|-(2)----||
|----2-----2--|-(2)-----0--2--|-3--------|-(3)----||
|-3-----3-----|------3--------|----------|--------||


 Chorus
  Q=224
  $$
  C5         Bb5 B5   C5         Bb5 B5   C5         Bb5 B5
  Gtr IV
   E  E Q  E  Q   E    E  E Q  E  Q   E    E  E Q  E  Q   E
|-------------------|-------------------|-------------------|
|-------------------|-------------------|-------------------|
|-12-12------10--11-|-12-12------10--11-|-12-12------10--11-|
|-10-10-------8---9-|-10-10-------8---9-|-10-10-------8---9-|
|-10-10-------8---9-|-10-10-------8---9-|-10-10-------8---9-|
|-------------------|-------------------|-------------------|


  C5                    F5         Eb5 E5   F5         Eb5
   E  E Q  E  Q   +E     E  E Q  E  Q   E    E  E Q  E  Q   +E
|---------------------|-------------------|----------------------|
|---------------------|-------------------|----------------------|
|-12-12------12--(12)S|=17-17------15--16-|-17-17------15--(15)S=|
|-10-10------10--(10)S|=15-15------13--14-|-15-15------13--(13)S=|
|-10-10------10--(10)S|=15-15------13--14-|-15-15------13--(13)S=|
|---------------------|-------------------|----------------------|


  C5         Bb5 B5   C5         Bb5        G5          Gb5
   E  E Q  E  Q   E    E  E Q  E  Q   +E    E E Q  E Q  E
|-------------------|---------------------|---------------|
|-------------------|---------------------|---------------|
|-12-12------10--11-|-12-12------10--(10)S|=7-7------7--6-|
|-10-10-------8---9-|-10-10-------8---(8)S|=5-5------5--4-|
|-10-10-------8---9-|-10-10-------8---(8)S|=5-5------5--4-|
|-------------------|---------------------|---------------|


                              To Dbl. Coda
  F5        Eb5   C5          Bb5B5   C5
  E E Q  Q   Q     E  E Q  Q   E  E    W
|---------------|-------------------|---------|
|---------------|-------------------|---------|
|-5-5-------15S=|=12-12-------10-11-|-12------|
|-3-3-------13S=|=10-10--------8--9-|-10------|
|-3-3-------13S=|=10-10--------8--9-|-10------|
|---------------|-------------------|---------|


                              Q=141
                                    N.C.
  Gtr IV
   +W            +W            +Q   Q   Q  Q
|-------------|-------------|--------------8--|
|-------------|-------------|-------8--10-----|
|-(12)--------|-(12)--------|-(12)------------|
|-(10)--------|-(10)--------|-(10)------------|
|-(10)--------|-(10)--------|-(10)------------|
|-------------|-------------|-----------------|
|
| Gtr I
|   W             W             Q   Q   Q  Q
|-------------|-------------|-----------------|
|-------------|-------------|-----------------|
|-------------|-------------|-----------------|
|-------------|-------------|-----------------|
|-------------|-------------|-----------0--2--|
|-------------|-------------|-------3---------|


    C             G
     Q      Q      E     +E  E  E
||--10b12--10b12--10b12r(10)-8-10-|
||o-------------------------------|
||--------------------------------|
||--------------------------------|
||o-------------------------------|
||--------------------------------|
|
|    Q      q      Q         q
||--------------------------------|
||o---------1----------------0----|
||----------0----------------0----|
||--------------------------------|
||o--3-------------2--------------|
||-----------------3--------------|


  N.C.             C             G
  Q  Q   Q  Q   3x  Q      Q      E     +E  E  E
|-8---------8---||-10b12--10b12--10b12r(10)-8-10-|
|----8--10-----o||-------------------------------|
|---------------||-------------------------------|
|---------------||-------------------------------|
|--------------o||-------------------------------|
|---------------||-------------------------------|
|
| q  q   q  q   3x  Q      q      Q         q
|---------------||-------------------------------|
|--------------o||---------1----------------0----|
|---------------||---------0----------------0----|
|---------------||-------------------------------|
|-3------0--2--o||--3-------------2--------------|
|----3----------||----------------3--------------|


  C
  W          +W           +Q   Q  H
|-8--------|-(8)--------|-(8)----------||
|----------|------------|--------------||
|----------|------------|--------------||
|----------|------------|--------------||
|----------|------------|--------------||
|----------|------------|--------------||
|
| W          +W            W
|----------|------------|--------------||
|-1--------|-(1)--------|--------------||
|-0--------|-(0)--------|--------------||
|-2--------|-(2)--------|--------------||
|-3--------|-(3)--------|--------------||
|----------|------------|--------------||


 2nd Verse
        G       N.C.          C     G       N.C.
  Gtr I
  Q  q  Q  q    q  q  q  q    Q  q  Q  q    q  q  q  q
|-------------|-------------|-------------|-------------|
|----1-----0--|-------------|----1-----0--|-------------|
|----0-----0--|-------------|----0-----0--|-------------|
|-------------|-------------|-------------|-------------|
|-3-----2-----|-3-----0--2--|-3-----2-----|-3-----0--2--|
|-------3-----|----3--------|-------3-----|----3--------|


                                         D.S. al Coda
  C     G       N.C.          C     G       N.C.
  Q  q  Q  q    q  q  q  q    Q  q  Q  q    q  Q  Q  Q
|-------------|-------------|-------------|-------------|
|----1-----0--|-------------|----1-----0--|-------------|
|----0-----0--|-------------|----0-----0--|-------------|
|-------------|-------------|-------------|-------------|
|-3-----2-----|-3-----0--2--|-3-----2-----|-3--3--2--0--|
|-------3-----|----3--------|-------3-----|-------------|


    Q=224
    &
    N.C.
    Gtr IV
    PM--------------------|                 PM--------------------|
    E S S E S S E S S E S S   Q   H.        E S S E S S E S S E S S
||--------------------------|-------------|-------------------------|
||o-------------------------|-------------|-------------------------|
||--------------------------|-------------|-------------------------|
||--------------------------|-------------|-------------------------|
||o-------------------------|-8--12-------|-------------------------|
||--8-8-8-8-8-8-8-8-8-8-8-8-|-------------|-8-8-8-8-8-8-8-8-8-8-8-8-|


  PM--|                    PM--------------------|
  E S S  E  E H            E S S E S S E S S E S S
|-------------------||-||--------------------------|
|------------------o||-||o-------------------------|
|-------------------||-||--------------------------|
|-------------------||-||--------------------------|
|-------------8----o||-||o-------------------------|
|-8-8-8-10-12-------||-||--3-3-3-3-3-3-3-3-3-3-3-3-|


               PM--------------------|
  Q  H.        E S S E S S E S S E S S
|------------|---------------------------|
|------------|---------------------------|
|------------|---------------------------|
|------------|---------------------------|
|-3--7-------|---------------------------|
|------------|-3-3-3-3-3-3-3-3-3-3-3-3---|


  1.                2.
  Gtr IV
  PM--|              PM--|
  E S S E E H        E S S E E H
|-----------------||----------------|
|----------------o||----------------|
|-----------------||----------------|
|-----------------||----------------|
|-------0-2-3----o||-------0-2-3----|
|-3-3-3-----------||-3-3-3----------|
|
| Gtr I
| W                  W
|-----------------||----------------|
|----------------o||----------------|
|-----------------||----------------|
|-----------------||----------------|
|----------------o||----------------|
|-----------------||----------------|


               Q=141
  +W           +W           +Q    Q  H
|------------|------------|-----------------||
|------------|------------|-----------------||
|------------|------------|-----------------||
|------------|------------|-----------------||
|-(3)--------|-(3)--------|-(3)\------------||
|------------|------------|-----------------||
|
|  W            W            Q    Q  Q  Q
|------------|------------|-----------------||
|------------|------------|-----------------||
|------------|------------|-----------------||
|------------|------------|-----------------||
|------------|------------|----------0--2---||
|------------|------------|-------3---------||


 3rd Verse
  C     G       N.C.          C     G       N.C.
  Gtr I
  Q  q  Q  q    q  q  q  q    Q  q  Q  q    q  q  q  q
|-------------|-------------|-------------|-------------|
|----1-----0--|-------------|----1-----0--|-------------|
|----0-----0--|-------------|----0-----0--|-------------|
|-------------|-------------|-------------|-------------|
|-3-----2-----|-3-----0--2--|-3-----2-----|-3-----0--2--|
|-------3-----|----3--------|-------3-----|----3--------|


  C     G       N.C.          C     G       N.C.
  Gtr I
  Q  q  Q  q    q  q  q  q    Q  q  Q  q    H       H
|-------------|-------------|-------------|---------------|
|----1-----0--|-------------|----1-----0--|---------------|
|----0-----0--|-------------|----0-----0--|---------------|
|-------------|-------------|-------------|---------------|
|-3-----2-----|-3-----0--2--|-3-----2-----|-3-------------|
|-------3-----|----3--------|-------3-----|---------3-----|
|
| Gtr II
| W             W             W             Q   q   q  Q
|-------------|-------------|-------------|---------------|
|-------------|-------------|-------------|---------------|
|-------------|-------------|-------------|----12--12-----|
|-------------|-------------|-------------|---------------|
|-------------|-------------|-------------|---------------|
|-------------|-------------|-------------|---------------|


                  C                G
   H      H        Q         q     Q  q
|---------------|------------------------|
|---------------|------------1--------0--|
|---------------|------------0--------0--|
|---------------|------------------------|
|--0------2-----|--3---------------2-----|
|---------------|------------------3-----|
|
|  q  Q   q  Q     e  E     +E   E H
|---------------|---------------15-------|
|--------12-----|-13-15b17-(15)----------|
|-14------------|------------------------|
|---------------|------------------------|
|---------------|------------------------|
|---------------|------------------------|


  N.C.                     C                G
   q         q     q  q     Q         q     Q  q
|------------------------|------------------------|
|------------------------|------------1--------0--|
|------------------------|------------0--------0--|
|------------------------|------------------------|
|--3---------------0--2--|--3---------------2-----|
|------------3-----------|------------------3-----|
|
|  e  E     +E   E H        e  E     +E   E H
|---------------15-------|---------------15-------|
|-13-15b17-(15)----------|-13-15b17-(15)----------|
|------------------------|------------------------|
|------------------------|------------------------|
|------------------------|------------------------|
|------------------------|------------------------|


  N.C.            C                G
   q   q  q  q     Q         q     Q  q
|---------------|------------------------|
|---------------|------------1--------0--|
|---------------|------------0--------0--|
|---------------|------------------------|
|--3------0--2--|--3---------------2-----|
|------3--------|------------------3-----|
|
|  e E Q  H        e  E     +E   E H
|---------------|---------------15-------|
|-13------------|-13-15b17-(15)----------|
|---------------|------------------------|
|---------------|------------------------|
|---------------|------------------------|
|---------------|------------------------|


  N.C.                     C                G
   q         q     q  q     Q         q     Q  q
|------------------------|------------------------|
|------------------------|------------1--------0--|
|------------------------|------------0--------0--|
|------------------------|------------------------|
|--3---------------0--2--|--3---------------2-----|
|------------3-----------|------------------3-----|
|
|  e  E     +E   E H        e  E     +E   E H
|---------------15-------|---------------15-------|
|-13-15b17-(15)----------|-13-15b17-(15)----------|
|------------------------|------------------------|
|------------------------|------------------------|
|------------------------|------------------------|
|------------------------|------------------------|


  N.C.            G                  N.C.       C     G
   q   Q  Q  Q    Q  Q  Q  Q    +Q   q  q  q    Q  q  Q  q
|---------------|-------------|---------------|-------------|
|---------------|-------------|---------------|----1-----0--|
|---------------|----0-----0--|-(0)-----------|----0-----0--|
|---------------|----0-----0--|-(0)-----------|-------------|
|--3---3--2--0--|----2-----2--|-(2)-----0--2--|-3-----2-----|
|---------------|-3-----3-----|------3--------|-------3-----|
|
|  e E Q  H       W              W              W
|---------------|-------------|---------------|-------------|
|-13------------|-------------|---------------|-------------|
|---------------|-------------|---------------|-------------|
|---------------|-------------|---------------|-------------|
|---------------|-------------|---------------|-------------|
|---------------|-------------|---------------|-------------|


  N.C.          C     G       N.C.          C     G
  q  q  q  q    Q  q  Q  q    q  q  q  q    Q  q  Q  q
|-------------|-------------|-------------|-------------|
|-------------|----1-----0--|-------------|----1-----0--|
|-------------|----0-----0--|-------------|----0-----0--|
|-------------|-------------|-------------|-------------|
|-3-----0--2--|-3-----2-----|-3-----0--2--|-3-----2-----|
|----3--------|-------3-----|----3--------|-------3-----|


  N.C.          C     G       N.C.          C     G
  q  q  q  q    Q  q  Q  q    q  q  q  q    Q  q  Q  q
|-------------|-------------|-------------|-------------|
|-------------|----1-----0--|-------------|----1-----0--|
|-------------|----0-----0--|-------------|----0-----0--|
|-------------|-------------|-------------|-------------|
|-3-----0--2--|-3-----2-----|-3-----0--2--|-3-----2-----|
|----3--------|-------3-----|----3--------|-------3-----|


                                          D.S.S. al Dbl. Coda
  N.C.          G                  N.C.       C
  q  Q  Q  Q    Q  Q  Q  Q    +Q   q  q  q    W          +W
|-------------|-------------|---------------|----------|---------||
|-------------|-------------|---------------|-1--------|-(1)-----||
|-------------|----0-----0--|-(0)-----------|-0--------|-(0)-----||
|-------------|----0-----0--|-(0)-----------|-2--------|-(2)-----||
|-3--3--2--0--|----2-----2--|-(2)-----0--2--|-3--------|-(3)-----||
|-------------|-3-----3-----|------3--------|----------|---------||


  Q=224
  &&
  N.C.
  Gtr IV
  PM--------------------|                 PM--------------------|
  E S S E S S E S S E S S   Q   H.        E S S E S S E S S E S S
|-------------------------|-------------|--------------------------|
|-------------------------|-------------|--------------------------|
|-------------------------|-------------|--------------------------|
|-------------------------|-------------|--------------------------|
|-------------------------|-8--12-------|--------------------------|
|-8-8-8-8-8-8-8-8-8-8-8-8-|-------------|-8-8-8-8-8-8-8-8-8-8-8-8--|


  PM--|              PM--|
  E S S  E  E H      E S S  E  E H
|------------------|------------------|
|------------------|------------------|
|------------------|------------------|
|------------------|------------------|
|-------------8----|-------------8----|
|-8-8-8-10-12------|-8-8-8-10-12------|


                                        F5
  PM--|              PM--|
  E S S  E  E H      E S S  E  E H      E E Q  H
|------------------|------------------|-------------*|
|------------------|------------------|-------------*|
|------------------|------------------|-------------*|
|------------------|------------------|-3-----------*|
|-------------8----|-------------8----|-3-----------*|
|-8-8-8-10-12------|-8-8-8-10-12------|-1-----------*|



Duration Legend
---------------
W - whole; H - half; Q - quarter; E - 8th; S - 16th; T - 32nd; X - 64th; a - acciaccatura
+ - note tied to previous; . - note dotted; .. - note double dotted
Uncapitalized letters represent notes that are staccato (1/2 duration)
Irregular groupings are notated above the duration line
Duration letters will always appear directly above the note/fret number it represents the
duration for.  Duration letters with no fret number below them represent rests.  Multi-
bar rests are notated in the form Wxn, where n is the number of bars to rest for.  Low
melody durations appear below the staff

Tablature Legend
----------------
 h   - hammer-on
 p   - pull-off
 b   - bend
 pb  - pre-bend
 r   - bend release (if no number after the r, then release immediately)
 /\  - slide into or out of (from/to "nowhere")
 s   - legato slide
 S   - shift slide
 - natural harmonic
[n]  - artificial harmonic
n(n) - tapped harmonic
 ~   - vibrato
 tr  - trill
 T   - tap
 TP  - trem. picking
 PM  - palm muting
\n/  - tremolo bar dip; n = amount to dip
 \n  - tremolo bar down
 n/  - tremolo bar up
/n\  - tremolo bar inverted dip
 =   - hold bend; also acts as connecting device for hammers/pulls
 <> - volume swell (louder/softer)
 x   - on rhythm slash represents muted slash
 o   - on rhythm slash represents single note slash

Misc Legend
-----------
 |  - bar
||  - double bar
||o - repeat start
o|| - repeat end
*|  - double bar (ending)
 :  - bar (freetime)
 $  - Segno
 &  - Coda
Tempo markers -  = BPM(8/16=s8/s16), where s8 = swing 8ths, s16 = swing 16ths


            
            
Suggest correction
Creating personal tab
Creating personal tab
You can edit any tab online and save it as your Personal.

You can edit, replace or remove any tab part or add personal notes – all changes will be seen only by you.

Personal tabs can be accessed anytime from any device, even offline.
Learn more »
Give kudos to tab author, rate the tab!
1 2 3 4 5
comments
print report bad tab
guest
You may want to rate the tab now too:
select rating
Wanna post a correction for this tab? Suggest correction