Oops, an error
Loading. Please wait.

Good N Ready bass

version 1
version 1

Whole song

Interactive

3,286 views 1 this week
2 commentsread comments
1 2 3 4 5
2 more votes to show rating
add to favorites
×
Save as Personal and add changes to this tab that will be seen only by you. Learn more ›
×
You can save this tab as Personal to edit and correct it or add notes. All changes will be seen only by you. Learn more »
launch autoscroll
font size
0
reset
guitar tuner
edit
Autoscroll
slow
fast
+/-
esc
set tempo
stop
Difficulty
intermediate
- Anti-Flag - Good N Ready
- Tabbed by: Pacu, bassist from a braziian punk rock band called PunkAss.
- I tabbed the guitar tab about this song too, but if you open it you will notice that 
guitar tab is a little different than the bass tab. Its because of i forgot to tell that 
the guitar tab i use the tunning in "A#". THe bass tab is just in standart tunning. So, enjoy it.

_______________

Intro chorus – No Bass

Chorus [1x]
G|----------------------------------------------------------------|
D|----------------------53-3----------------3---------------------|
A|-3333333333-33333333-3--5-53-----------646-64-----5---5---6---8-|
E|----------------------------6--444444-4------6--33-333-444-666--|

Verse
G|----------|------|----------|------|
D|-----5----|-[3x]-|----------|-[1x]-|
A|---68-86--|------|-86-6-----|------|
E|-68-----8-|------|---8-8646-|------|

G|----------|------|------------------|------|
D|-65-------|-[2x]-|-----3---653-3----|-[1x]-|
A|---8686---|------|---46-64----6-64--|------|
E|-------86-|------|-46-----6-------6-|------|

Pre-chorus
G|----------------------------|
D|----------------------------|
A|----------------------------|
E|-33~--33~--33~33~-33~-33-33-|

Chorus [2x]
Verse
Chorus [2x]

Bridge [02:50]
G|-------------------------------------------------------------|
D|-------------------------------------------------------------|
A|-15-15/22-20-18--11-11/22-20-17--18-18/22-20-18--20-20-18-17-|
E|-------------------------------------------------------------|

G|------------------------------------------------|
D|------------------------------------------------|
A|-15-15/22-20-18--11-11/22-20-17--18-18/22-20-18-|
E|------------------------------------------------|

G|----------------------------------|
D|----------------------------------|
A|----------------------------------|
E|-33333333-33333333-33333333-33333-|

“you'll get yours when you're..”
No Bass

Chorus [2x]

Ending
G|---------------|------|-------|------|
D|------13151715-|-[3x]-|-------|-[1x]-|
A|-1515----------|------|--15\--|------|
E|---------------|------|-------|------|

            
            
Suggest correction
Creating personal tab
Creating personal tab
You can edit any tab online and save it as your Personal.

You can edit, replace or remove any tab part or add personal notes – all changes will be seen only by you.

Personal tabs can be accessed anytime from any device, even offline.
Learn more »
Give kudos to tab author, rate the tab!
1 2 3 4 5
comments
print report bad tab
2 comments total.
0 reply
Mr. Thingy 260 May 05, 2008 09:10 PM

You got the general idea down, though a lot of the verse and chorus is off.

0 reply
pacu 2,540 Nov 28, 2008 04:03 PM

yeah man, i tabbed this terribly hahaha... but the version 2 is better check that out

guest
Wanna post a correction for this tab? Suggest correction